Bruce Springsteen - Paradise Chords & Tabs

 

Paradise Chords & Tabs

Bruce Springsteen Chords & Tabs

Version: 1 Type: Tab 0 ratings
1 star 2 stars 3 stars 4 stars 5 stars
comments

Paradise Tab

   
Bruce Springsteen - Paradise tab intro

Something that has been hard to find.


normal tunning capo 3rd fret

                G                     G
e----------------------------------------------------------------|
b---------------------------------------3----------3-------------|
g------------0--0h2p0---------------------0----------0-----------|
d-------0-0h2-------------2---0------0-----------0---------------|
a----------------------------------------------------------------|
e-----3-------------------------3------------3-------------------|

                G                     G
e----------------------------------------------------------------|
b---------------------------------------3----------3-------------|
g------------0--0h2p0---------------------0----------0-----------|
d-------0-0h2-------------2---0------0-----------0---------------|
a----------------------------------------------------------------|
e-----3-------------------------3------------3-------------------|
[ Tab from: http://www.guitartabs.cc/tabs/b/bruce_springsteen/paradise_tab.html ]
                Am                    Am
e----------------------------------------------------------------|
b------------1-------------1-------------1-----------------------|
g---------------2-------------2-------------2--------------------|
d--------2-------------2-------------2---------------------------|
a----0-------------0-------------0-------------------------------|
e----------------------------------------------------------------|

                        G                   G
e-----------------------------------------------------------------|
b-------------------------3--------------3----------3-------------|
g---------------------------0--------------0----------0-----------|
d--------------------0----------------0-----------0---------------|
a-----------------------------------------------------------------| 
e----------------3---------------3------------3-------------------|

There is a variation I can't figure out in the second time around
for the first part but this is pretty much correct and sounds awesome.

Please offer corrections if you have them.  Thanks.

Any questions:  IceMan404@hotmail.com
Comments