Bruce Springsteen - Brothers Under The Bridge Chords & Tabs

 

Brothers Under The Bridge Chords & Tabs

Bruce Springsteen Chords & Tabs

Version: 1 Type: Bass Tab 0 ratings
1 star 2 stars 3 stars 4 stars 5 stars
comments

Brothers Under The Bridge Bass Tab

Song: "Brothers Under the Bridge"
by BRUCE SPRINGSTEEN
written by: Bruce Springsteen
tabbed by: Guido Comparato 

 "Come the Santa Ana's..."
G|-----------------------------------------------------------------------|
D|-----------------------------------------------------------------------|
A|--5---5---5---5-----------5---5---5---5---5---5-------2---0---5---5----|
E|------------------3---3---------------------------3--------------------|

 "Had enough of town, and the street life..."
G|--------------------------------------------------------------------------|
D|--------------------------------------------------------------------------|
A|-2---2-------------5---5--------------5---5---5---5---------2---0---5---5-|
E|---------5\3---3-----------2/5--2/5-------------------5\3-----------------|
[ Tab from: http://www.guitartabs.cc/tabs/b/bruce_springsteen/brothers_under_the_bridge_btab.html ]
 "I come home in '72..."
G|--------------------------------------------------------------------------|
D|--------------------------------------------------------------------------|
A|-5---5---5---5-------------5---5---5---5---5---5---------2---0---5---5----|
E|-----------------5\3---3---------------------------5\3------------------5-|

 "Come Veteran's Day..."
G|--------------------------------------------------------------------------|
D|--------------------------------------------------------------------------|
A|-5--5--5--5--5--5--5--5----------------5--5--5--5-----5--5--5--5--5--5--5-|
E|-------------------------5\3--3--3--3/-------------5----------------------|

 Outro
G|----------------------------------------------|
D|----------------------------------------------|
A|------------2---0---5---5---5---5---5---------|
E|--5-3---3-------------------------------------|

 That's all the song, I hope you find this useful...
 Corrections, comments or anything else to comparato@fcmail.com

 Bye bye
Comments