Bruce Lee Band - Gilligans Twist Chords & Tabs

 

Gilligans Twist Chords & Tabs

Bruce Lee Band Chords & Tabs

Version: 2 Type: Bass Tab 0 ratings
1 star 2 stars 3 stars 4 stars 5 stars
comments

Gilligans Twist Bass Tab

artist: bruce lee band
song: gilligan's twist
Tabbed by: Justin Reynolds (illihexill@aol.com)

G:------------------------------
D:-----------9-------------7---
A:-----045--77--7--55-------
E:-55---------------------------

G:-------------------------------------
D:-------------------------------------
A:-----------------------55-45-7-----
E:-0000-444-7777-------------------

G:--------------------------
D:---------775544---------
A:-----4--------------55---
E:-55--555-----------------
[ Tab from: http://www.guitartabs.cc/tabs/b/bruce_lee_band/gilligans_twist_btab_ver_2.html ]
G:---------------------------------------------------
D:-----4-------554----------6----------------------
A:-55---555-------75-77----777-55-4-----------
E:----------------------------------------------7-----

G:----------------------------------------
D:-7777-777-66-77-9-77777-6-------
A:-----------------------------------------
E:-------------------------------------------

G:------------------------------------
D:-6--------------4-----55-4---------
A:---99--77-55---55-------7-5------
E:---------------------------------------
Comments