Bruce Dickinson - Navigate The Seas Of The Suin Chords & Tabs

 

Navigate The Seas Of The Suin Chords & Tabs

Bruce Dickinson Chords & Tabs

Version: 1 Type: Tab 0 ratings
1 star 2 stars 3 stars 4 stars 5 stars
comments

Navigate The Seas Of The Suin Tab

   
Navigate The Seas of the Sun - Bruce Dickinson - A Tyranny of Souls

Transcribed by Ricci Nak

Note: I'm not 100% sure of the second solo, as for the rest I think 
it's pretty accurate.


INTRO
	PLay twice
	(00:00)

    Bm     C      Em    D

e|--2------0------0-----2-------------------------------------------------|
B|--3------1------0-----3-------------------------------------------------|
G|--4------0------0-----2-------------------------------------------------|
D|--4------2------2-----0-------------------------------------------------|
A|--2------3------2-------------------------------------------------------|
E|----------------0-------------------------------------------------------|
 
	PLay Four Times
	(00:27)
   G     Am    Am    G 
e|--3-----0-----0-----3--------------------------------------------------|
B|--0-----1-----1-----0--------------------------------------------------|
G|--0-----2-----2-----0--------------------------------------------------|
D|--0-----2-----2-----0--------------------------------------------------|
A|--2-----0-----0-----2--------------------------------------------------|
E|--3-----------------3--------------------------------------------------|

     One Guitar with distortion over the acoustic playing the first riff.
	(01:08)

e|---------------|------------------------------------------------------|
B|---------------|------------------------------------------------------|
G|---------------|------------------------------------------------------|
D|---------------|------------------------------------------------------|
A|--2--3--7--5---|--2--3--7--5~~~---------------------------------------|
E|---------------|------------------------------------------------------|


	PLay Twice	
	(01:30)

    Em    G     Am    Am
e|--0-----3-----0-----0----------------------------------------------------|
B|--0-----0-----1-----1----------------------------------------------------|
G|--0-----0-----2-----2----------------------------------------------------|
D|--2-----0-----2-----2----------------------------------------------------|
A|--2-----2-----0-----0----------------------------------------------------|
E|--0-----3----------------------------------------------------------------|

	PLay Three times
	(01:56)
e|--3-----0-----0-----3--------------------------------------------------|
B|--0-----1-----1-----0--------------------------------------------------|
G|--0-----2-----2-----0--------------------------------------------------|
D|--0-----2-----2-----0--------------------------------------------------|
A|--2-----0-----0-----2--------------------------------------------------|
E|--3-----------------3--------------------------------------------------|

	PLay Twice
	(02:35)
e|---------------|------------------------------------------------------|
B|---------------|------------------------------------------------------|
G|---------------|------------------------------------------------------|
D|--4--5--9--7---|--4--5--9--7------------------------------------------|
A|--2--3--7--5---|--2--3--7--5~~~---------------------------------------|
E|---------------|------------------------------------------------------|
[ Tab from: http://www.guitartabs.cc/tabs/b/bruce_dickinson/navigate_the_seas_of_the_suin_tab.html ]
	PLay Twice
	(02:59)
    Em    G     Am    Am
e|--0-----3-----0-----0----------------------------------------------------|
B|--0-----0-----1-----1----------------------------------------------------|
G|--0-----0-----2-----2----------------------------------------------------|
D|--2-----0-----2-----2----------------------------------------------------|
A|--2-----2-----0-----0----------------------------------------------------|
E|--0-----3----------------------------------------------------------------|


 First SOLO (03:21)

e|-----------------------------------------------------------------------|
B|-----------------------------------------------------------------------|
G|--11--11--12--15--15--12--11h12p11h12-9--12--11--9--4--7--9------------|
D|-----------------------------------------------------------------------|
A|-----------------------------------------------------------------------|
E|-----------------------------------------------------------------------|


e|--14--14--15--17--17--15--14--14--12--15--14--12------14^15------------|
B|--------------------------------------------------12-------------------|
G|-----------------------------------------------------------------------|
D|-----------------------------------------------------------------------|
A|-----------------------------------------------------------------------|
E|-----------------------------------------------------------------------|

e|--14-15-14-12-14-12-11-12-11-8-5-7-------------------------------------|
B|-----------------------------------------------------------------------|
G|-----------------------------------------------------------------------|
D|-----------------------------------------------------------------------|
A|-----------------------------------------------------------------------|
E|-----------------------------------------------------------------------|
	Riff Under first solo
    Bm     C      Em    D          Bm    C     Em    B
e|--2------0------0-----2-------|--2-----0-----0-----2-------------------|
B|--3------1------0-----3-------|--3-----1-----0-----4-------------------|
G|--4------0------0-----2-------|--4-----0-----0-----4-------------------|
D|--4------2------2-----0-------|--4-----2-----2-----4-------------------|
A|--2------3------2-------------|--2-----3-----2-----2-------------------|
E|----------------0-------------|--------------0-------------------------|

Second SOLO (03:42)

e|---------------------------------------------------------------------|
B|-----------12-14-15-14-12--------------------------------------------|
G|--------11----------------14-12-11--------14-12-11-------------------|
D|-----12----------------------------14-12-----------14-12-11----------|
A|--14---------------------------------------------------------12------|
E|---------------------------------------------------------------------|

e|---------------------------------------------------------------------|
B|----------10-12-13-12-10---------------------------------------------|
G|--------9----------------12-11-9--12-11-9----------------------------|
D|-----10-----------------------------------12-10-9--------------------|
A|--12----------------------------------------------10-----------------|
E|---------------------------------------------------------------------|

	Riff under second Solo
    Bm    A     Am    G       B
e|--7-----5-----5-----3-------7~ ------------------------------------------|
B|--7-----5-----5-----3-------7~ ------------------------------------------|
G|--7-----6-----5-----4-------7~ ------------------------------------------|
D|--9-----7-----7-----5-------9~ ------------------------------------------|
A|--9-----7-----7-----5-------9~ ------------------------------------------|
E|--7-----5-----5-----3-------7~ ------------------------------------------|
Comments