Bruce Dickinson - Man Of Sorrows Chords & Tabs

 

Man Of Sorrows Chords & Tabs

Bruce Dickinson Chords & Tabs

Version: 2 Type: Tab 0 ratings
1 star 2 stars 3 stars 4 stars 5 stars
comments

Man Of Sorrows Tab

Artist: Bruce Dickinson
Song: "Man Of Sorrows" written by Bruce Dickinson
From the album "Accident Of Birth" (1997)
Tabbed by Nailed Reaper (reap@front.ru)

I think it's the best Bruce's ballad. I don't know who played solo - Roy or Aidge, but it's f-ckin' great.
I'm sorry for any errors. If you know how to play it right - mail me.

b - bend down
r - release bend
/ - slide up
\ - slide down
\.PM./ - palm mute
~ - vibrato

  [2:52]-[2:59]
e|-------------------------------------------------8-------------|
B|----13b15-13-10-----------------------------8-10---------------|
G|----------------12b14r12-10-12-10/--10-9-10--------10-9---12~/-|
D|--------------------------------------------------------8------|
A|---------------------------------------------------------------|
E|-*-------------------------------------------------------------|
* - there is some pick scratching through the 6th string and slide up from 12 on the same string.

  [3:00]-[3:06]
e|----------------10-12-13------------------8--------------------------------|
B|----------------------------------------8---11-10-8------------------------|
G|-------------10--------------------9-10-------------10-9-7-6---------------|
D|----------12--------------------10---------------------------8-7-5---------|
A|-------12------------------7-10------------------------------------8-7-----|
E|-10-13-------------------8---------------------------------------------5~\-|
  \...PM.../              \..PM../
[ Tab from: http://www.guitartabs.cc/tabs/b/bruce_dickinson/man_of_sorrows_tab_ver_2.html ]
  [3:07]-[3:16]
e|-13b15-13-18-17-15-13-----------------------------------------------------------|
B|--------------------------13b15r13-10-------------------------------------------|
G|----------------------14~------------13-12-10-----------------------------------|
D|---------------------------------------------12-10------------------------------|
A|--------------------------------------------------12-11-10--------\8~/5~\10~/7~-|
E|----------------------------------------------------------13-10~----------------|

  [3:17]-[3:24]
e|----------15-17-18-20-20b22-20b22r20b22-22b24-22b24-22b24-22b24-22b24-22b24-22b24r22~/-|
B|-15-17-18------------------------------------------------------------------------------|
G|---------------------------------------------------------------------------------------|
D|---------------------------------------------------------------------------------------|
A|---------------------------------------------------------------------------------------|
E|---------------------------------------------------------------------------------------|

  [3:25]-[3:34]
e|----------10-12-13-12-10----------------------------------------------------------------|
B|-------10----------------------------11-------11-10-------10----------------------------|
G|----10--------------------10p9-------------10----------10----12-----12-10-9-------------|
D|-12----------------------------12~------12----------12-----------10---------12p10-12~---|
A|----------------------------------------------------------------------------------------|
E|----------------------------------------------------------------------------------------|

Well, that's it. Up the Irons!!! Up the Gypsies!!! Up Bruce, Roy and Aidge!!!
Comments