Bruce Dickinson - Lickin The Gun Chords & Tabs

 

Lickin The Gun Chords & Tabs

Bruce Dickinson Chords & Tabs

Version: 1 Type: Tab 0 ratings
1 star 2 stars 3 stars 4 stars 5 stars
comments

Lickin The Gun Tab

Bruce Dickenson
Lickin The Gun

Riff 1 (the main riff of the song)
1---------------------------------------------------------------------|
2---------------------------------------------------------------------|
3-----------------2-0------------------------2~-----------------------|
4---------2-----------4-2------------2--------------------------------|
5-----------0-3-4---------3~-----------0-3-4--------------------------|
6---0-3-4----------------------0-3-4--------------3~------------------|

Riff 2 (strophes)
1-------------------------------------------3-------------------------|
2-------------------------------------------3-------------------------|
3---------------------------------2--3--4---------(2~)----------------|
4---------------------------------3--4--5---------(3~)----------------|
5----------2---3---4---5----------------------------------------------|
6---3\---3---3---3---3---3--3\----------------------------------------|
                                                   *1
Riff 3 (interlude)
1---0----3---2----\---------------------------------------------------|
2---1----3---3----\-(scratch)------------3--2--1--0-------------------|
3---0----0---2----\------------(x4)------2--1--0--0-------------------|
4---2----0---0----\---------------------------------------------------|
5---3-------------\---------------------------------------------------|
6---------------------------------------------------------------------|
    *2
[ Tab from: http://www.guitartabs.cc/tabs/b/bruce_dickinson/lickin_the_gun_tab.html ]
First solo
The Riff during the first solo is the Main Riff (Riff 1)
1st solo
1----------------------------------------------------15-------20fb~---|
2---6----------------------------------/3--/3\---/15----18fb~---------|
3---5fb---5fbbr-3-3-3-----0 h.~-\/-----/3--/3\------------------------|
4---------------------5~----------------------------------------------|
5---------------------------------------------------------------------|
6---------------------------------------------------------------------|
                           *3
1---------------------------------------------------------------------|
2--------------------------18-18----18---18---18----------------------|
3-------15-----14-----17fb----17fb--17fb-17fb-17fbbr-17-15----15~-----|
4----------------------------------------------------------17---------|
5---/17----/15--------------------------------------------------------|
6---------------------------------------------------------------------|

1---------------------------------------------------------------------|
2---------------------------------------------------------------------|
3----0--15L12L0--14L12L0--12L10L0--10L9L0--9L7L0--7L5L0--5L3L0--3-----|
4---------------------------------------------------------------------|
5---------------------------------------------------------------------|
6---------------------------------------------------------------------|

1---------------------------------------------------------------------|
2---------------------------------------------------------------------|
3----5fb-3------------------------------------------------------------|
4---------------------------------------------------------------------|
5-----------5qb--3fb--1~~---------------------------------------------|
6---------------------------------------------------------------------|

Second solo:
Riff under the solo
1---------------------------------------------------------------------|
2---------------------------------------------------------------------|
3-----------------2~--------------------------------------------------|
4---------2-------------------2---------------(x2)--------------------|
5-----------0-3-4---------------0-3-4--0~-----------------------------|
6---0-3-4---------------0-3-4-----------------------------------------|

Second solo
1------------------------------------------0--------------5=A7\----------|
2-----------------0 h.---------5~~-------------1-2-----5=A7--------------|
3--------0 h.~~\/------0 h.~~----------0-1---2------2=A7-----------------|
4------------------------------------2-----------------------------------|
5------------------------------------------------------------------------|
6--0\-/------------------------------------------------------------------|
   *4    *5        *6                                 *7

Riff 4:
2nd guitar in the last chourus (background of the main riff: Riff1)
1---------------------------------------------------------------------|
2-----------------2-0----------------------2~-------------------------|
3---------------------2-0---------------------------------------------|
4---------2---------------2--------2----------------------------------|
5-----------0-3-4--------------------0-3-4----------------------------|
6---0-3-4--------------------0-3-4---------------3--------------------|
Comments