Bruce Dickinson - King In Crimson Chords & Tabs

 

King In Crimson Chords & Tabs

Bruce Dickinson Chords & Tabs

Version: 1 Type: Bass Tab 0 ratings
1 star 2 stars 3 stars 4 stars 5 stars
comments

King In Crimson Bass Tab

Bruce Dickenson
King In Crimson

Normal tuning (EADG)


intro
G|---------|---------|---------|--------|
D|---------|---------|---------|--------|
A|-3---2---|-9-8-4---|-3---2---|-9-8-7--|
E|---------|---------|---------|--------|


w/ distortion                                   
G|-----------|-----------|-------------|-----------|
D|-----------|-----------|-------------|-----------|
A|-2-2-5-2-0-|-2-2-5-2-0-|-2-2-5-2-0-2-|-0-0-2-3-4-|
E|-----------|-----------|-------------|-----------|


then alternate that riff with this one
G|-----------|-----------|-----------|-----|
D|-----------|-----------|-----------|-4-3-|
A|-2-2-5-2-0-|-2-2-5-2-0-|-2-2-5-2-0-|-----|
E|-----------|-----------|-----------|-----|


bridge
G|------------|-------------------------|---------------------|
D|------------|-------------2---2-3-2---|-------------2---2-3-|
A|-9--8--7--5-|-2-2-2-5-2-5---5-------5-|-2-2-2-5-2-5---5-----|
E|------------|-------------------------|---------------------|
"Daylight has come..."

[ Tab from: http://www.guitartabs.cc/tabs/b/bruce_dickinson/king_in_crimson_btab.html ]
pre-chorus
G|--------------------|--------------------|
D|--------------------|--------------------|
A|----------------0---|----------------0---|
E|-0----2----3--------|-0----2----3--------|
"As the veil reveals..."


chorus
G|----------------------------------------------------|
D|----------------------------------------------------|
A|--2-------9--8---9--7-----2-5---2-5--7-------7--5---|
E|----------------------------------------------------|
"Arise! Awake! The king in crimson comes..."


after chorus
G|------------------------------------------------------|
D|---------------2---2-3-2-------------------2---2-3----|
A|---2-2-2-5-2-5---5-------5-----2-2-2-5-2-5---5--------|
E|------------------------------------------------------|

G|------------------------------------------------------|
D|---------------2---2-3-2------3-2---2-----------------|
A|---2-2-2-5-2-5---5-------5--------5---5-2-5-2---2-----|
E|----------------------------------------------5---5-2-|

Then repeat the other parts above, etecetera...


during the guitar solo
G|-----------------------------------|
D|-----------------------------------|
A|---9------5---7---9-----7----------|
E|-----------------------------------|
Comments