Bruce Dickinson - Change Of Heart Chords & Tabs

 

Change Of Heart Chords & Tabs

Bruce Dickinson Chords & Tabs

Version: 2 Type: Tab 0 ratings
1 star 2 stars 3 stars 4 stars 5 stars
comments

Change Of Heart Tab

Bruce Dickenson
Change Of Heart

Intro Riff:

E-------------------------------------------------|
B--5----------------------------------------------|
G--5----------------------------------------------|
D--7---------------------------------3------------|
A--7---------------------------------3------------|
E--5---------------------------------1------------|

E--------------------------------------------------|
B----------10-10--12-12/13--12-10-12-----12-13-----|
G-----------9---------------------------------10*--|
D----------10--------------------------------------|
A--------------------------------------------------|
E--------------------------------------------------|

E-----1-------------------------------------------|
B-----1------------------5------------------------|
G-----2------------------5------------------------|
D---3-3------------------7------------------------|
A--3---------------------7------------------------|
E-1----------------------5------------------------|

E------------------------------------------------|
B------------------------------------------------|
G-----9-10-12-10h12-10-9-----9h10-9*-------------|
D------------------------12----------------------|
A------------------------------------------------|
E------------------------------------------------|

E--------------------------------------------------|
B--------------------------------------------------|
G----------------------------------------2/4-------|
D-------------------------3------------3-3/5-------|
A-------------------------3-----------3--3/5-------|
E-------------------------1----------1-------------|

E------------------------------------------------|
B-10-10--12-12p13-12-13-15--15-17-13*----12-13---|
G--9------------------------------------------14-|
D-10---------------------------------------------|
A------------------------------------------------|
E------------------------------------------------|

E------------------------------------------------|
B------------------------------------------------|
G------------------------------------------------|
D------------------------------------------------|
A------------------------------------------------|
E------------------------------------------------|

E------------------------------------------------|
B------------------------------------------------|
G-12---------------------------------------------|
D----14-12-10-9-10-------------------------------|
A------------------12*---------------------------|
E------------------------------------------------|

Verse Riff:

E------------------------------------------------|
B--5*-------6*-------5*-------5*-------3*--------|
G------------------------------------------------|
D--7*-------7*-------7*-------5*-------3*--------|
A------------------------------------------------|
E------------------------------------------------|

E------------------------------------------------|
B------------------------------------------------|
G------------------------------------------------|
D------------------------------------------------|
A------------------------------------------------|
E------------------------------------------------|

E------------------------------------------------|
B-3*-------3h5-3--1-----1h3-1-0------------------|
G----------2------2-----2-----1------------------|
D-3*-------3------2-----2-----2------------------|
A-----------------------------2------------------|
E------------------------------------------------|

E---------------------------------------------------|
B------------------------------10-12-13-12*-10--10--|
G---------------------------------------------12----|
D---------------------------------------------------|
A---------------------------------------------------|
E---------------------------------------------------|

E------------------------------------------------|
B--5*-------6*-------5*-------5*-------3*--------|
G------------------------------------------------|
D--7*-------7*-------7*-------5*-------3*--------|
A------------------------------------------------|
E------------------------------------------------|

E------------------------------------------------|
B------------------------------------------------|
G--------------------------------7b(8)(7)-5------|
D-------------------------------------------7-7--|
A------------------------------------------------|
E------------------------------------------------|

E------------------------------------------------|
B-3*-------3h5-3--1-----1h3-1-0------------------|
G----------2------2-----2-----1------------------|
D-3*-------3------2-----2-----2------------------|
A-----------------------------2------------------|
E------------------------------------------------|

E------------------------------------------------|
B------------------------------------------------|
G------------------------------------------------|
D------------------------------------------------|
A------------------------------------------------|
E------------------------------------------------|

Pre-Chorus Riff:

E-----1-----------0--------------------------------|
B-----1-----------0--------------------------------|
G-----2-----------2--------5-----------------------|
D-----3-----------3--------7------5--7-------------|
A---3-3---------3-3--------7------5--7-------------|
E-1-----------1------------5------3--5-------------|

E----------------------------------------------------|
B----------------------------------------------------|
G---------------------------------------9-9-10-10/12-|
D--------------------------------------10------------|
A--------------------------------------12------------|
E----------------------------------------------------|

E-----------1-----------0---------------------------|
B-----------1-----------0-----------3---------------|
G-----------2-----------2-----------2---------------|
D-----------3-----------3-----------3---------------|
A---------3-3---------3-3-----------0--------5------|
E-------1-----------1-----------1-0----------3------|

E------------------------------------------------|
B------------------------------------------------|
G-10-9----9*-------------------------------------|
D------12----------------------------------------|
A------------------------------------------------|
E------------------------------------------------|

Chorus Riff:

E------------------------------------------------|
B------------------------------------------------|
G-----------------5-----------------5-5----------|
D-2---5---7-------7------7----------5-5---5------|
A-2---5---7-------7------7----------3-3---5------|
E-0---3---5--------------5----------------3------|

E-------------------------------------------------|
B----------------------10-8-----------------------|
G---------------5----------10-----5----------5-4--|
D-----------7-7---7--------------7--------------5-|
A-------------------------------7-----------------|
E-------------------------------------------------|

E------------------------------------------------|
B------------------------------------------------|
G--------5------------------5-5------------------|
D-7------7------7-----------5-5---5--------------|
A-7------7------7-----------3-3---5--------------|
E-5-------------5-----------------3--------------|

E------------------------------------------------|
B-------------10-8-------------------------------|
G------5----------10------5-----------5-4--------|
D--7-7---7---------------7---------------5-------|
A-----------------------7------------------------|
E------------------------------------------------|
End of the first chorus

E------------------------------------------------|
B------------------------------------------------|
G------------------------------------------------|
D------------------------------------------------|
A------------------------------------------------|
E------------------------------------------------|

E------------------------------------------------|
B-12-12-12-13-12--10-------8-10-8--6-6h8-6--5----|
G-14----14----14---9-------7-------5--------5----|
D-14----14--------10-------9-------7--------7----|
A------------------------------------------------|
E------------------------------------------------|

Verse Riff:

E------------------------------------------------|
B--5*-------6*-------5*-------5*-------3*--------|
G------------------------------------------------|
D--7*-------7*-------7*-------5*-------3*--------|
A------------------------------------------------|
E------------------------------------------------|

E------------------------------------------------|
B------------------------------------------------|
G------------------------------------------------|
D------------------------------------------------|
A------------------------------------------------|
E------------------------------------------------|

E------------------------------------------------|
B-3*-------3h5-3--1------0-----------------------|
G----------2------2------1-----------------------|
D-3*-------3------2------2-----------------------|
A------------------------2-----------------------|
E------------------------------------------------|

E----------------------------------------------------|
B---------------------------17-18-18/20--18-17---17--|
G---------------------------------------------19-----|
D----------------------------------------------------|
A----------------------------------------------------|
E----------------------------------------------------|

Pre-Chorus Riff:

E-----1-----------0-----------------------------------|
B-----1-----------0-----------------------------------|
G-----2-----------2--------5--------------------------|
D-----3-----------3--------7------5--7----------------|
A---3-3---------3-3--------7------5--7----------------|
E-1-----------1------------5------3--5----------------|

E------------------------------------------------|
B------------------------------------------------|
G--------------------------------------12/14--14-|
D------------------------------------------------|
A------------------------------------------------|
E------------------------------------------------|
[ Tab from: http://www.guitartabs.cc/tabs/b/bruce_dickinson/change_of_heart_tab_ver_2.html ]
E---------------------1-----------0------------------|
B---------------------1-----------0---------3--------|
G---------------------2-----------2---------2--------|
D---------------------3-----------3---------3------5-|
A-------------------3-3---------3-3---------0------5-|
E------------------1-----------1---------1-0-------3-|

E------------------------------------------------|
B------------------------------------------------|
G-16-12-14---------------------------------------|
D----------14------------------------------------|
A------------14---12-12*-------------------------|
E------------------------------------------------|

Chorus Riff:

E------------------------------------------------|
B------------------------------------------------|
G-----------------5-----------------5-5----------|
D-2---5---7-------7------7----------5-5---5------|
A-2---5---7-------7------7----------3-3---5------|
E-0---3---5--------------5----------------3------|

E-------------------------------------------------|
B----------------------10-8-----------------------|
G---------------5----------10-----5----------5-4--|
D-----------7-7---7--------------7--------------5-|
A-------------------------------7-----------------|
E-------------------------------------------------|

E------------------------------------------------|
B------------------------------------------------|
G--------5------------------5-5------------------|
D-7------7------7-----------5-5---5--------------|
A-7------7------7-----------3-3---5--------------|
E-5-------------5-----------------3--------------|

E------------------------------------------------|
B-------------10-8-------------------------------|
G------5----------10------5----------------------|
D--7-7---7---------------7-----------------------|
A-----------------------7------------------------|
E------------------------------------------------|

Bridge Riff:
This is the one just before the solo

E------------------------------------------------|
B-------13--------------------13-----------------|
G----10--------------------10--------------------|
D-12-------12-----------12-------10--------------|
A------------------------------------------------|
E------------------------------------------------|

E------------------------------------------------|
B------------------------------------------------|
G------------------------------------------------|
D------------------------------------------------|
A------------------------------------------------|
E------------------------------------------------|

E-------------------------------------------------|
B-------12-13---------------8-13------------------|
G----9--------------------9-----------------------|
D-10-------10-----------7-----10------------------|
A-------------------------------------------------|
E-------------------------------------------------|

E------------------------------------------------|
B------------------------------------------------|
G------------------------------------------------|
D------------------------------------------------|
A------------------------------------------------|
E------------------------------------------------|

E------------------------------------------------|
B-------13--------------------13-----------------|
G----10--------------------10--------------------|
D-12-------12-----------12-------10--------------|
A------------------------------------------------|
E------------------------------------------------|

E------------------------------------------------|
B------------------------------------------------|
G------------------------------------------------|
D------------------------------------------------|
A------------------------------------------------|
E------------------------------------------------|

                                        SOLO:

E-------------------------------------------------|
B------6---------6--------------------------------|
G---7----7--------4-------------------------------|
D-9-----------------6-----2------3--5--7----------|
A----------------------7--2------3--5--7----------|
E-------------------------0------1--3--5----------|

E-------------------------------------------------|
B---------------------------------------13----13--|
G------------------------------------------9------|
D-------------------------------------------------|
A-------------------------------------------------|
E-------------------------------------------------|

E------------------------------------------------|
B------------------------------------------------|
G---4--5------------4--5----------------4--5-----|
D---5--7------------5--7----------------5--7-----|
A---5--7------------5--7----------------5--7-----|
E---3--5------------3--5----------------3--5-----|

E-------------------------------------------------|
B-12------12-10*----------------------------------|
G----9---------------------9-10b(12)(10)-10*------|
D---------------------7-10------------------------|
A-------------------------------------------------|
E-------------------------------------------------|

E------------------------------------------------|
B------------------------------------------------|
G---4-4---4--5------------------4--5-------------|
D---5-5---5--7------------------5--7-------------|
A---5-5---5--7------------------5--7-------------|
E---3-3---3--5------------------3--5-------------|

E-------------------------------------------------|
B-7b(9)*--7-7-7-7-7p5--------7b-------------------|
G----------------------7------------------14------|
D---------------------------------------14--14----|
A-------------------------------------------------|
E-------------------------------------------------|

E-------------------------------------------------|
B------------------------------------3-3----------|
G--------------4--5------------------2-2---4-4----|
D--------------5--7------------------3-3---5-5----|
A--------------5--7------------------0-0---5-5----|
E--------------3--5------------1-0---------3-3----|

E------------------------------------------17-19-20-|
B----------------------15/16*-----17-18-20----------|
G-16*---14---17*----14------------------------------|
D-----14--14------14--------------------------------|
A---------------------------------------------------|
E---------------------------------------------------|

                     Pre-Chorus Riff:

E------------------1-1-1-1--1------0-0-0-0--0-----|
B------------------1-1-1-1--1------0-0-0-0--0-----|
G------------------2-2-2-2--2------2-2-2-2--2-----|
D------------------3-3-3-3--3------3-3-3-3--3-----|
A------------------3-3-3-3--3------3-3-3-3--3-----|
E------------------1-1-1-1--1------1-1-1-1--1-----|

E--20---19---17----------------------------------|
B----------------18*-----------------------------|
G------------------------------------------------|
D------------------------------------------------|
A------------------------------------------------|
E------------------------------------------------|

E-----------------------1-1-1-1--1------1-1-1-1--1-|
B-----------------------1-1-1-1--1------1-1-1-1--1-|
G-----------------------2-2-2-2--2------2-2-2-2--2-|
D---7-------5--7--------3-3-3-3--3------3-3-3-3--3-|
A---7-------5--7--------3-3-3-3--3------3-3-3-3--3-|
E---5-------3--5--------1-1-1-1--1------1-1-1-1--1-|

E----------------------------------------------------|
B----16h18-16h18-16h18--16-14-16--14-13-14--13-11-13-|
G----------------------------------------------------|
D----------------------------------------------------|
A----------------------------------------------------|
E----------------------------------------------------|

E--------0-0-0-0--0-------0-0-0-0--0--------------|
B--------0-0-0-0--0-------0-0-0-0--0--------------|
G--------2-2-2-2--2-------2-2-2-2--2--------------|
D--------3-3-3-3--3-------3-3-3-3--3-----------5--|
A--------3-3-3-3--3-------3-3-3-3--3-----------5--|
E--------1-1-1-1--1-------1-1-1-1--1-----------3--|

E---------------------------------------------------|
B---19/21-19/21-19/21--19-18------19/21-19-18---18--|
G----------------------------20--------------20-----|
D---------------------------------------------------|
A---------------------------------------------------|
E---------------------------------------------------|

Chorus Riff:

E------------------------------------------------|
B------------------------------------------------|
G-----------------5-----------------5-5----------|
D-2---5---7-------7------7----------5-5---5------|
A-2---5---7-------7------7----------3-3---5------|
E-0---3---5--------------5----------------3------|

E-------------------------------------------------|
B----------------------10-8-----------------------|
G---------------5----------10-----5----------5-4--|
D-----------7-7---7--------------7--------------5-|
A-------------------------------7-----------------|
E-------------------------------------------------|

E------------------------------------------------|
B------------------------------------------------|
G--------5------------------5-5------------------|
D-7------7------7-----------5-5---5--------------|
A-7------7------7-----------3-3---5--------------|
E-5-------------5-----------------3--------------|

E------------------------------------------------|
B-------------10-8-------------------------------|
G------5----------10------5----------------------|
D--7-7---7---------------7-----------------------|
A-----------------------7------------------------|
E------------------------------------------------|


E------------------------------------------------|
B------------------------------------------------|
G-----------------5-----------------5-5----------|
D-2---5---7-------7------7----------5-5---5------|
A-2---5---7-------7------7----------3-3---5------|
E-0---3---5--------------5----------------3------|

E-------------------------------------------------|
B-----------5---------5--------5------------------|
G--------5---5-----5---5----5---5-----------------|
D-------7-7---7---7-7---7--7-7---7----------------|
A-------------------------------------------------|
E-------------------------------------------------|

E------------------------------------------------|
B------------------------------------------------|
G--------5------------------5-5------------------|
D-7------7------7-----------5-5---5--------------|
A-7------7------7-----------3-3---5--------------|
E-5-------------5-----------------3--------------|

E-------------------------------------------------|
B-----------5---------5--------5------------------|
G--------5---5-----5---5----5---5-----------------|
D-------7-7---7---7-7---7--7-7---7----------------|
A-------------------------------------------------|
E-------------------------------------------------|
Comments