Bruce Dickinson - Abduction Chords & Tabs

 

Abduction Chords & Tabs

Bruce Dickinson Chords & Tabs

Version: 2 Type: Tab 0 ratings
1 star 2 stars 3 stars 4 stars 5 stars
comments

Abduction Tab

   
bruce dickinson
tyranny of souls
abduction
2005

tuning(D A D G B E)

-------------------------------------------------------------------|
-------------------------------------------------------------------|
-------------------------------------------------------------------|
-------------------------------------------------------------------|
----------8p7--------5h7-------3h5-1h3-----------------------------|
-0-0-0-0--------0-0-------0-0--------------------------------------|

-------------------------------------------------------------------|
-------------------------------------------------------------------|
-------------------------------------------------------------------|
----------------------------------3h5------------------------------|
----------8p7--------5h7----------------1h3------------------------|
-0-0-0-0--------0-0--------0-0-------------------------------------|

-------------------------------------------------------------------|
-------------------------------------------------------------------|
-------------------------------------------------------------------|
-------------------------------------------------------------------|
----------8p7--------5h7-------3h5--1h3----------------------------|
-0-0-0-0--------0-0-------0-0--------------------------------------|

-------------------------------------------------------------------|
-------------------------------------------------------------------|
-------------------------------------------------------------------|
-------------------------------8-----------------------------------|
----------8p7-------5h7--------6-----------------------------------|
-0-0-0-0-------0-0--------0-0--------------------------------------|

-------------------------------------------------------------------|
------------------------------------10p8-8h10----------------------|
-------------------------------------------------------------------|
-------------------------------------------------------------------|
-0-0-0-0-0-0-0-0-0-0-0-0-0-0-0-0-----------------------------------|
-0-0-0-0-0-0-0-0-0-0-0-0-0-0-0-0-----------------------------------|
pm......................pm......

------------------------------------------------------------------|
------------------------------------------------------------------|
------------------------------------------------------------------|
------------------------------------------------------------------|
-0-0-0-0-0-0-0-0-0-0-0-0-0-0-0-0----------------------------------|
-0-0-0-0-0-0-0-0-0-0-0-0-0-0-0-0----8-6-3-6-----------------------|
pm......................pm......

[ Tab from: http://www.guitartabs.cc/tabs/b/bruce_dickinson/abduction_tab_ver_2.html ]
-------------------------------------------------------------------|
-------------------------------------------------------------------|
---------------------------------------------------------2---------|
-7-----3----------2---------7-----3----5------------2-3-----3-2----|
-5-----1----3-----0---------5-----1----3-------3-3---------------3-|
-0----------3---------------0--------------------------------------|

--------------------------------------------------------------------|
-------------------------------------------------------10-----10-11-|
--------------------------------------------9-9-10-12------12-------|
--7---3-----------2-------7-----3-----5-----------------------------|
--5---1------3----0-------5-----1-----3-----------------------------|
--0----------3------------0-----------------------------------------|

-------------------------------------------------------------------|
-------------------------------------------------------------------|
-------------------------------------------------------------------|
-------------------------------------------------------------------|
----------------------------------5-5-5-5-3h5---6------------------|
-0-0-0-0--1-1-1-1--3-3-3-3--1v------------------6------------------|

then repeat verse chorus and interlude...

chords for solo

-------------------------------------------------------------------|
-------------------------------------------------------------------|
-------------------------------------------------------------------|
----------9-------10------------------9-------10-------------------|
-7-7-7-7-----7-7-------7-7-7-7-7-7-7-----7-7-----------------------|
-------------------------------------------------------------------|
pm......     pm..      pm.........pm     pm..

-------------------------------------------------------------------|
-------------------------------------------------------------------|
------------7---------------------------7--------------------------|
---------------7-8-------------------------7-8---------------------|
--5-5-5-5-------------5-5-5-5-5-5-5-5--------------5-5-5-5-5-------|
-------------------------------------------------------------------|
pm.......             pm.............              pm........

-------------------------------------------------------------------|
-------------------------------------------------------------------|
--------------9----------------------------9-----------------------|
-----------------9-10-------------------------9-10-----------------|
--7-7-7-7-7--------------7-7-7-7-7-7-7-7--------------7-7-7-7-7----|
-------------------------------------------------------------------|
pm.........              pm.............              pm........
Comments