Brownman Revival - Lintik Chords & Tabs

 

Lintik Chords & Tabs

Brownman Revival Chords & Tabs

Version: 1 Type: Tab

Lintik Tab

   
Artist: Brownman Revival
Song: Lintik
Album: Steady Lang

Tabbed by: John Kristoffer M. Gomez

I can't find a decent tab of this one.. So I had to figure
it out for myself.. haha :D

Easy song, just watch out for the timing :)

Bass Intro:
G-------------|--------------|
D-------------|--------------|
A-------------|--------------|
E---5--5-2-0--|--5-5--5-2-0--| (repeat 8x)

Intro: A-Bm-C#m-Bm-A

Chorus:
           Bm
Lintik na pag-ibig
          A
Parang kidlat
        Bm
Puso kong tahimik na naghihintay
             A
Bigla mong ginulat


Verse 1:
           Bm                    C#m
'Di ko man lang napansin ang iyong pagdating
     Bm                                 A 
Daig mo pa ang isang bagyong namuo sa malayo
        Bm
Ihip ng hangin biglang nag-iba
    C#m
Sinundan pa ng kulog at kidlat
           Bm
Biglang buhos ng iyo sa akin
          A
Ako'y napakanta

[Repeat Chorus twice]

Verse 2:
Mga halik mo't mga lambing, inuulan mo sa akin
Binabaha, binabagyo na ako ng iyong mga cariņo
Nananaginip ba ako nang gising
Ay, tinamaan ng magaling
Nadali mo ang puso ko ng iyong kidlat

[Repeat Chorus twice]

Guitar Solo:
E------------------------------------------------------|
B------------------------------------------------------|
G--14-15-17-15-14--------------------------------------|
D-----------------14-14h16~~~~-14h16-14----------------|
A---------------------------------------16-14h16-14~~~-|
E------------------------------------------------------|
[ Tab from: http://www.guitartabs.cc/tabs/b/brownman_revival/lintik_tab.html ]
E-------------------------------------------------------------|
B------------------------17--------------17--17h19-17h19p17---|
G--14/16-16h18-16---16h18--18-16-14-16h18--18--------------18-|
D-------------------------------------------------------------|
A-------------------------------------------------------------|
E-------------------------------------------------------------|

E-----------------------------------------------------------------|
B-----------------------------------------------------------------|
G--18-16\14-16-14\13-14-13\11-13-11\9-11-9\7-9-7\6-7-6\4-6-4\2-4--|
D-----------------------------------------------------------------|
A-----------------------------------------------------------------|
E-----------------------------------------------------------------|

E--------------------------------------------|
B--------------------------------------------|
G--2/4-4h6--6-6-4-6--6-7-6-4--2-4-1-2-4/9~~--|
D--------------------------------------------|
A--------------------------------------------|
E--------------------------------------------|

E--------------------------------------------------------|
B--------------------------------------------------------|
G--16/18-16-14-16----------------------------------------|
D------------------14/16-14-12-14~-14-12h14-12-11-12/14--|
A--------------------------------------------------------|
E--------------------------------------------------------|

E-------------------------------------------------------|
B-----------------------------------19-17-15------------|
G----------------------16-14-----------------18-16~~~~~-|
D-------14--16-14------------16-14----------------------|
A--14h16--16------16-14---------------------------------|
E-------------------------------------------------------|


[Repeat Verse 2]
[Repeat Chorus twice]

Bm
Lintik, lintik, woh woh woh
A
Parang kidlat

[Keyboard outro solo use Chorus chords]

Finale Chord: A(3x)

Para to dun sa babaeng crush n crush ko.. hehehe :)