Brown Recluse - Lost And Found Chords & Tabs

 

Lost And Found Chords & Tabs

Brown Recluse Chords & Tabs

Version: 1 Type: Bass Tab 0 ratings
1 star 2 stars 3 stars 4 stars 5 stars
comments

Lost And Found Bass Tab

Band:Brown recluse
Song:Lost and found
Tabbed by:metalcools
This song was brown recluses 3rd song wrote if you have any 
problems e-mail me at metalcooled@yahoo.com

h=hammer on
/=slide down
\=slide up

     verse   play 6 times i think
G|--------------------------------------------------
D|--------------------------------------------------
A|---2-2-22--------------5-5-55---------------------
E|------------3-3-33--------------6-6-66------------
[ Tab from: http://www.guitartabs.cc/tabs/b/brown_recluse/lost_and_found_btab.html ]
   interude    play 4 times
G|--------------------------------------------------
D|--------------------------------------------------
A|--0-0-3h-0-0--------3h-0----3h--------------------
E|-------------3h-0-0------3h-----------------------

       chorse  play twice
G|--------------------------------------------------
D|--------------------------------------------------
A|--2-22-----------------------2-22-22--------------
E|--------3-3-33-3---0--0-0-0-----------------------

G|-------------------------------------9-7----------
D|-----------------------------------------9-7------
A|---2-2-2--2---5-5-5-5-5---7-7-7-7-7----------9-7/2
E|--------------------------------------------------
Comments