Brown James - I Feel Good Chords & Tabs

 

I Feel Good Chords & Tabs

Brown James Chords & Tabs

Version: 1 Type: Bass Tab 1 rating
1 star 2 stars 3 stars 4 stars 5 stars
comments

I Feel Good Bass Tab

I Feel Good 
by James Brown
from James Brown Greatest Hits Album
Bass Line Tabbed by Adam Sorini


  VERSE BASS LINE:
    
G----7p57p57p57----7--5----|----7p57p57p57----7--5----|---------
D------------------------7-|------------------------7-|---------
A-5--------------5---------|-5--------------5---------|-----------
E--------------------------|--------------------------|-------

G--------------------------|----7p57p57p57----7--5----|--------------|
D----5p35p35p35----5--3----|------------------------7-|--------------|
A------------------------5-|-5--------------5---------|--------------|
E-3--------------3---------|--------------------------|---5-5---3-3--|
[ Tab from: http://www.guitartabs.cc/tabs/b/brown_james/i_feel_good_btab.html ]
G-------5-9-|-
D---4-7-----|repeat once-
A-5---------|-
E-----------|

  BRIDGE BASS LINE: arranged for bass, originaly played on horns.

G-----7-5--5----|----7-5--5----|-
D---------7-7-3-|--------7-7-3-|-
A-5-------------|-5------------|-
E---------------|--------------|-

  CHORUS BASS LINE:

G---------|--------|--------|--------|--------|--------|-----
D-553322--|553322--|--------|--------|553322--|553322--|7------
A-------55|------55|553322--|553322--|------55|------55|------
E---------|--------|------55|------55|--------|--------|-----

  OUTRO BASS LINE:

G-------5-9-7-5--------------------------------------------
D---4-7---------7-5----------------------------------------
A-5-----------------7~~~~~~~~-5~~~~~~~-------------------
E------------------------------------------------------

Comments