Brown James - Get Up Offa That Thing Chords & Tabs

 

Get Up Offa That Thing Chords & Tabs

Brown James Chords & Tabs

Version: 1 Type: Bass Tab 0 ratings
1 star 2 stars 3 stars 4 stars 5 stars
comments

Get Up Offa That Thing Bass Tab

Song: Get Up Offa That Thing
Artist: James Brown
Album: Dead On The Heavy Funk (1975-83)
Tabbed by: Dave Miller (dave@basstabarchive.com)
http://www.basstabarchive.com/


Main Riff
[ Tab from: http://www.guitartabs.cc/tabs/b/brown_james/get_up_offa_that_thing_btab.html ]
G|--------------------------------------|
D|*------1-2-1-2--2-2-1-2-4-------------|
A|*----1--------------------------------|
E|---2----------------------------------|
    

Hits - "Hit Me!"

G|--------------------------------------|
D|*-------------------------------------|
A|*---4--4------------------------------|
E|--------------------------------------|
			

Comments