Brother Cane - The Last Time Chords & Tabs

 

The Last Time Chords & Tabs

Brother Cane Chords & Tabs

Version: 1 Type: Tab 0 ratings
1 star 2 stars 3 stars 4 stars 5 stars
comments

The Last Time Tab

   
The Last Time
**Drop Tuned Half Step**
Beginning is a little tricky. The solo is one of the more easy 
going of the Brother Cane ones, but the last set of notes
before the final chorus are fast and practically all over the 
fretboard.  There is also a 2nd guitar at the end that I left out.
If you really want to learn it, it shouldn't be too difficult after
figuring out the rest.

~    =  vibrato (shake note as if with whammy bar)
+    =  bend for appropiate pitchshifts
h    =  hammer on following note then release back to original
x    =  muffling (mute strings with pick hand when striking)
/    =  slide fret fingers to next  note

Intro
  D              C   Fm D Bb  G     D           C      Bb   C Bb A
|-0----0----------3-----------------0----0---------3----------------|
|-3------3------3-------3-----------3------3-----3------------------|
|-2--------2--0---------2-3---------2--------2-0-------3-3-/5-3--2--|
|----0--------2-------3---3--5-5-------0-------2-------3-3-/5-3--2--|
|-------------3-------3---1--5-5---------------3-------1-1-/3-1--0--|
|---------------------1------3-3------------------------------------|

  D             C    Fm D Bb  G     D           C      Bb  C
|-0----0----------3-----------------0----0---------3----------|
|-3------3------3-------3-----------3------3-----3------------|
|-2--------2--0---------2-3---------2--------2-0-------3-3-5--|
|----0--------2-------3---3--5-5-------0-------2-------3-3-5--|
|-------------3-------3---1--5-5---------------3-------1-1-3--|
|---------------------1------3-3------------------------------|

play this part twice with 2nd guitar part coming in after first time
      D        C     Fm        G         D        C     Bb      C
|-0-0-0-0-0--3-3-3-------------------0-0-0-0-0--3-3-3-----------------|
|-3-3-3-3-3--3-3-3-------------------3-3-3-3-3--3-3-3-----------------|
|-2-2-2-2-2--0-0-0-------------------2-2-2-2-2--0-0-0--3--3--5--5-x-5-|
|-0-0-0-0-0--2-2-2--3--3--5--5-x-5---0-0-0-0-0--2-2-2--3--3--5--5-x-5-|
|------------3-3-3--3--3--5--5-x-5--------------3-3-3--1--1--3--3-x-3-|
|-------------------1--1--3--3-x-3------------------------------------|

2nd Guitar
  +                  + +	 +         +
|--------------------------------------------------|
|-8--6-6h8h6---------------------6---6-6---8-6----=|
|------------7-7/0-----------5h7---7-----7-----7/0-|
|--------------------5-5-5/7-----------------------|
|--------------------------------------------------|
|--------------------------------------------------|

Verse 1
  D    C     Fm  G             D    C    Bb     C
|------------------------------------------------------|
|------------------------------------------------------|
|-7---5-5----------------------7---5-5---3-3--5-5-x-5--|
|-7---5-5---3-3--5-5-x-5-------7---5-5---3-3--5-5-x-5--|
|-5---3-3---3-3--5-5-x-5-------5---3-3---1-1--3-3-x-3--|
|-----------1-1--3-3-x-3-------------------------------|
You might remember. .          Much confusion. .
It seems that lately. . .      What the . . .

Pre Chorus
  A   C         G   D
|-----0---------3---2---------------------------|
|-----1---------3---3---------------------------|
|-2---0---------0---2--------2-4h2-4h2---2------|
|-2---2---------0--------2h4-----------4---4/0--|
|-0---3---------2-------------------------------|
|---------------3-------------------------------|
Oh things. .   They make room. . .

  A   C         Em  Fm  C
|-----0-----------------0---|
|-----1-----------------1---|
|-2---0-----------------0---|
|-2---2----------2--3---2---|
|-0---3----------2--3---3---|
|----------------0--1-------|
The price. .    I don't. .

Chorus
   G      Fm     C     Bb           Fm    C    G	
				 	  +
|----------------------------------------0-0---3-------------------|
|----------------------------------------1-1---3--3h1--------------|
|---------------5-5----3-----------------0-0---0------3h0----------|
|-5-5----3-3----5-5----3-----------3-3---2-2---0----------3h0------|
|-5-5----3-3----3-3----1-----------3-3---3-3---2--------------3-1--|
|-3-3----1-1-----------------------1-1---------3-------------------|
Make sure this is your last time   Don't lose your. . .

   G     Fm      C     Bb           Fm    C    G
|----------------------------------------0-0---3---|
|----------------------------------------1-1---3---|
|---------------5-5----3-----------------0-0---0---|
|-5-5----3-3----5-5----3-----------3-3---2-2---0---|
|-5-5----3-3----3-3----1-----------3-3---3-3---2---|
|-3-3----1-1-----------------------1-1---------3---|
Make sure this is your last time   I've found my way. . .
[ Tab from: http://www.guitartabs.cc/tabs/b/brother_cane/the_last_time_tab.html ]
Play this intro part
       D       C     Fm   G               D       C     Bb      C
|-0-0-0-0-0--0-0-0-------------------0-0-0-0-0--0-0-0-----------------|
|-3-3-3-3-3--1-1-1-------------------3-3-3-3-3--1-1-1-----------------|
|-2-2-2-2-2--0-0-0-------------------2-2-2-2-2--0-0-0--3--3--5--5-x-5-|
|-0-0-0-0-0--2-2-2--3--3--5--5-x-5---0-0-0-0-0--2-2-2--3--3--5--5-x-5-|
|------------3-3-3--3--3--5--5-x-5--------------3-3-3--1--1--3--3-x-3-|
|-------------------1--1--3--3-x-3------------------------------------|

2nd Guitar during above line
 							    +---+
|-----------------0-0-----------------------------------------8-----|
|-10-8--6-6h8h6---6-6/0---------------------------6-6-------8---8/6-|
|---------------7-----------------------------5-7-----7-5-7---------|
|--------------------------------5h6h5-3--5-5-----------------------|
|------------------------3h5-5-5------------------------------------|
|-------------------------------------------------------------------|

Verse 2 played like Verse 1 with this added 2nd Guitar part starting 
after the first line

|-----13----------------------------------|
|-/15----15-------------------------------|
|------------12-12-13h12--10--12h10-------|
|-----------------------------------12/0--|
|-----------------------------------------|
|-----------------------------------------|

	 		     +   ~
|----------------------------------|
|--------13-13-13------------------|
|-/14-14-14-14-14--14-12-10-12--14-|
|----------------------------------|
|----------------------------------|
|----------------------------------|

Play Pre Chorus
Play Chorus twice

Solo (Play accoustic part of intro in background)
First part played with a slide
|-------------------------------------------10-/10/8--|
|-----8/7-8/7-8/7/8/7---------------8/7-/10-----------|
|-0/7------------------7/5/7---0/7--------------------|
|----------------------------7------------------------|
|-----------------------------------------------------|
|-----------------------------------------------------|

		stop using slide here *			+~
|-------------------------------------------------------9-|
|-/10-10-10-10-10-10-10--8-8-8--6-6-8-6-------8h9h8h6-----|
|---------------------------------------7-5-7---------7---|
|---------------------------------------------------------|
|---------------------------------------------------------|
|---------------------------------------------------------|

	  +				   ~
|-------------------------------------------------|
|--------------------------------------6-6--------|
|------------------------------5-7-5/7-----7-5/0--|
|-----3h5-5-3----------3-5-5/7--------------------|
|-3h5---------5-3-5/0-----------------------------|
|-------------------------------------------------|

   +						    +
|-22--20h17----17----------------------------------------------------|
|-----------20----20h18----18----------------------------------------|
|-----------------------19----19-17h19-17----------------------------|
|-----------------------------------------19h17-15-17-15-------------|
|--------------------------------------------------------17-15-17/0--|
|--------------------------------------------------------------------|

                   +			        +	      ~
|-----------------------------------------------------------------|
|-----------------------------------------------------------------|
|-/10-10----10----12-10-------------------------------------------|
|--------12----12-------12-10-------------------------------------|
|------------------------------11-10-8----8----10-8---------8-----|
|--------------------------------------10---10------10-8-10---10--|

	     +			     ~            +
|---------------------------------------------------------|
|---------------------------------------------------------|
|------7-9h7-9-7-10-7--7-5--------------------------------|
|-/7h9---------------------7h6h5-3-5h3--------------------|
|-------------------------------------------5-7h5-7-5-8-5-|
|---------------------------------------5h7---------------|

		                ~
|------------------------17-19-22-|
|---------------------19----------|
|--------------14h16--------------|
|-------7h9/12--------------------|
|-5h6h7---------------------------|
|---------------------------------|

Play Pre Chorus
Play Chorus

Play out
  G           Fm          Bb          Fm          C
|---------------------------------------------------------------|
|---------------------------------------------------------------|
|-------------------------3--------3--------------5-------------|
|-5-----------3-----------3------3----3-----------5------5-7-5--|
|-5------5-7--3------3-5--1--3/5------3------3-5--3--5/7--------|
|-3--5/7------1--3/5------------------1--3/5--------------------|

|-----------------------|
|-----------------------|
|-----7-9-9h7---7-------|
|-5/9---------9---9/0---|
|-----------------------|
|-----------------------|


I borrowed this from a fan site, if there are any questions e-mail me at
Angelo_Ravenius@hotmail.com
Comments