Brooks Garth - Shes Every Woman Chords & Tabs

 

Shes Every Woman Chords & Tabs

Brooks Garth Chords & Tabs

Version: 1 Type: Tab 0 ratings
1 star 2 stars 3 stars 4 stars 5 stars
comments

Shes Every Woman Tab

   
#----------------------------------PLEASE NOTE---------------------------------#
#This file is the author's own work and represents their interpretation of the #
#song. You may only use this file for private study, scholarship, or research. #
#------------------------------------------------------------------------------##
From: "theTone" 
Date:          Mon, 27 Nov 1995 14:13:34 MET
Subject:       TAB/CRD Garth Brooks - She's Every Woman

Garth Brooks - She's Every Woman (Shaw/Brooks)
--------------------------------

Intro :
                   upstroke
|--------------2------------|--4-----4-----5---2-----------|
|--5---------------2^4------|----5-------5-----------------|
|----------2-------4--------|------2-----------------------|
|------4-----------4--------|------------------------------|
|--2---------------2--------|------------------2-----------|
|---------------------------|--2-------2-------------------|

              E             E/G#(1)    A
She's sun and rain, she's fire and ice
         B      G#/C      C#m
A little crazy but it's nice
         A                  E/G#(2)         B7sus4   B
And when she gets mad, you best leave her alone
              E           E/G#(1)  A
'Cause she'll rage just like a river
            B        G#/C   C#m
Then she'll beg you to forgive her
      A           B                 E
She's every woman that I've ever known


             E         E/G#(1) A
She's so New York and then L.A.
          B      G#/C     C#m     B
And every town along the way
      A           E/G#(2)         B7sus4  B
She's every place that I've never been
             E        E/G#(1)  A
She's making love on rainy nights
        B               G#/C      C#m    B
She's a stroll through Christmas lights
          A           B            E     E  B
And she's everyting I want to do again

C#m              A        A   B
It needs no explanation
C#m                         A
'Cause it all makes perfect sense
E           B                 A      E/G#(2)
For when it comes down to temptation
         F#m  E/G#(2)  A      B7sus4  B
She's on both sides    of the fence
[ Tab from: http://www.guitartabs.cc/tabs/b/brooks_garth/shes_every_woman_tab.html ]
E   E/G#(1)   A
B   G#/C      C#m     B
A             E/G#(2)
B7sus4        B       G#/C

No it needs no explanation
'Cause it all makes perfect sense
When it comes down to temptation
She's on both sides of the fence

|--4---------------2--------|
|----------5----------------|
|------2-------2------------|
|---------------------------|
|---------------------------|
|--2---------------2--------|

         E          E/G#(1)  A
She's anything but typical
         B      G#/C  C#m
She's so unpredictable
       A           E/G#(2)              B7sus4   B
Oh but even at her worst she ain't that bad
         E       E/G#(1)    A
She's as real as real can be
          B      G#/C  C#m
And she's every fantasy
           A           B              C#m     B
Lord she's every lover that I've ever had
          A           B               (E   E/G#  A     B6   B   E)
And she's every lover that I've never had

On 'had' starts :                                                 
upstroke
|--4-------0----------------------|--4-------2-------0-------2---0---
4--|
|------0-----------2---------2----|----------------------0-----------
0--|
|------------------------2--------|------2-------2-------------------
1--|
|--------------2-------2-------2--|----------------------------------
2--|
|------------------0--------------|--2-------2-----------------------
2--|
|--0-------4----------------------|------------------0---------------
0--|


Remarks :

1) Play the verses picking anything you like

2) The chorus can also be strummed

3) The way I play these chords :
     E/G#(1) = (422100)
     E/G#(2) = (4XX454)
     G#/C    = (X3111X)
     B7sus4  = (X24252)
     B6      = (X24444) but you dont need this one
                        if you pick the last line

4) At the end of verse 1 instead of E chord something like this is 
played:

     |--0-----0-2-0-2---4------|
     |------0-----------0------|
     |-------------------------|
     |-------------------------|
     |-------------------------|
     |--0---------------0------|

5) On the place of 'B7sus4    B' you can pick :

     |------------------------------2-----|
     |--5---------5-----4-------4^5-------|
     |--------2---------------2-----------|
     |------4-----------------------------|
     |--2---------------2-----------------|
     |------------------------------------|

that'llHaveToDo
theTone

Comments