Brooks And Dunn - Only In America Chords & Tabs

 

Only In America Chords & Tabs

Brooks And Dunn Chords & Tabs

Version: 1 Type: Bass Tab 0 ratings
1 star 2 stars 3 stars 4 stars 5 stars
comments

Only In America Bass Tab

#----------------------------------PLEASE NOTE--------------------------------#
#This file is the author's own work and represents their interpretation of the#
#song. You may only use this file for private study, scholarship, or research.#
#-----------------------------------------------------------------------------#
This isn't perfect but it should get you started.  	
			
    ONLY IN AMERICA
    BROOKS AND DUNN
    


TABBED BY DON FLOWERS
Standard tuning EADG
G---------------------------------------------------------------------
D---------------------------------------------------------------------
A-----------------------------------------0--0-0--2--2-2--2-2--2-2-0--
E----------------------------------0--0-0-----------------------------
  Intro



G---------------------------------------------------------------------
D---------------------------------------------------------------------
A--------0--0-0--2--2-2--2-2--2-2-0-------0--0-0--2--2-2--2-2--2-2-0-
E-0--0-0----------------------------0--0-0---------------------------0
  Sun comes up over New York City,  School bus driver,in a traffic jam
  repeats....


G---------------------------------------------------------------------
D---------------------------------------------------------------------
A-0--0-0--2--2-2------------------------------------------------------
E-----------------0--0-0--0--0-0-0------------------------------------
  Staring at the faces in the rear-view mirror, 




G---------------------------------------------------------------------
D---------------------------------------------------------------------
A-0--0-0--0--0-0--2--2-2--2--2-2--------------------------------------
E---------------------------------------------------------------------  
  Looking at the promise of the promise land
[ Tab from: http://www.guitartabs.cc/tabs/b/brooks_and_dunn/only_in_america_btab.html ]
  Chorus
G---------------------------------------------------------------------
D---------------------------------------------------------------------
A-----------0--0-0----2--2-2----2--2-2-0------------------------------
E-0--0-0--------------------------------------------------------------
  Only in America, Dreamin in red, white and blue
  Only in America, where we dream as big as we want to


G---------------------------------------------------------------------
D---------------------------------------------------------------------
A-22222222--00000000--22222222--00000000------------------------------
E---------------------------------------------------------------------
  We all get the chance, everybody gets to dance


  Last few verses shift up a 1/2 step
G---------------------------------------------------------------------
D---------------------------------------------------------------------
A-----------1--1-1----3--3-3----3--3-3-1------------------------------
E-1--1-1--------------------------------------------------------------
  O-N-L-Y in America, where we dream in red, white and blue
     Only in America, where we dream as big as we want to


G---------------------------------------------------------------------
D---------------------------------------------------------------------
A-33333333--11111111--33333333--11111111------------------------------
E---------------------------------------------------------------------
  We all get the chance, everybody gets to dance


  Fade out till finish
G---------------------------------------------------------------------
D---------------------------------------------------------------------
A-----------1--1-1----3--3-3----3--3-3-1------------------------------
E-1--1-1--------------------------------------------------------------
  Only in America.......


Additions or corrections welcome.

flowers@touchnc.net
Don Flowers
  
Comments