Brooks And Dunn - Boot Scootin Boogie Chords & Tabs

 

Brooks And Dunn Chords & Tabs

Version: 1 Type: Bass Tab 0 ratings
1 star 2 stars 3 stars 4 stars 5 stars
comments

Boot Scootin Boogie Bass Tab

   
Song: Boot Scootin' Boogie
Artist:  Brooks & Dunn
Tuning:  Standard E

This is just a simple honky-tonk riff... there are 3 variations depending on the chord throughout the song.

Variation of Em riff:
G---------------------------
D---------------------------
A---------0--2-2--4-2-------
E-0-0-3---------------------
[ Tab from: http://www.guitartabs.cc/tabs/b/brooks_and_dunn/boot_scootin_boogie_btab.html ]
Variation from Am riff:
G---------------------------
D---------0--2-2--4-2-------
A-0-0-3---------------------
E---------------------------

Variation from Bm riff:
G---------------------------
D-----00---44--66-----------
A-22------------------------
E---------------------------

The verse is as such:  Em (x4), Am (x2), Em (x2), Bm (x4), Em (x2)

Chorus: Am (x2), Em (x2), Am (x2), Em (x2), Bm (x2), Em (x2)

That's basically it... figure out the rest... 

Jake White
Yonkel21@aol.com
Comments