Broken Social Scene - Cause Time Chords & Tabs

 

Cause Time Chords & Tabs

Broken Social Scene Chords & Tabs

Version: 1 Type: Tab 0 ratings
1 star 2 stars 3 stars 4 stars 5 stars
comments

Cause Time Tab

   
Broken Social Scene
Cause = time

Intro Guitar 1

e------------------------|
B------------------------|
G------------------------|
D-5-4-7-5~--5~--5~--4-7--|
A-3-2-5-3~--3~--3~--2-5--|
E------------------------|

Intro guitar 2 0:16

e-----------------------------------------|
B--8-8-8-8-8-8-8-8-10-8--888-6-5-888-10-8-|
G-9-9-9-9-9-9-9-9-9-----------------9-----|
D-----------------------------------------|
A-----------------------------------------|
E-----------------------------------------|

Main riff Guitar 1

e----------------------|
B----------------------|
G----------------------|
D-55555-444-4/777-77/5-|
A-33333-222-2/555-55/3-|
E----------------------|

Verse Guitar 1

e-0-------------------------------------------------|
B-0-------------------------------------------------|
G-0-------------------------------------------------|
D-2-------------------------------------------------|
A-3-just this chord strummed, followed by main riff-
E-3-------------------------------------------------

0:56 Chorus = same as verse w/main after it

Guitar 2 fill 1:20

Pick each note very fast.
                                                  [Some effect here]
e---------7777-888-101010-12121212-101010-77777---15151515121212------|
B---------------------------------------------------------------------|
G-999-777-------------------------------------------------------------|
D---------------------------------------------------------------------|
A---------------------------------------------------------------------|
E---------------------------------------------------------------------|

Solo 1 2:27

e----------------|
B-------10-------|
G---9------------|
D-/9--/9--9/7-5/-|
A----------------|
E----------------|

Solo 2 2:39
[ Tab from: http://www.guitartabs.cc/tabs/b/broken_social_scene/cause_time_tab.html ]
e-/15-12---------/15-12--------/15-12------------------------|
B--------15-12---------15-12---------15-12---12-1515---------|
G-------------14------------14------------14--------14-14/12-|
D------------------------------------------------------------|
A------------------------------------------------------------|
E------------------------------------------------------------|


e-/15-12--------/17-15---------/17-15----------------------------|
B-------15-12----------17-15---------17-15---15---17-17-17-17-17-|
G------------14-------------16------------16---16----------------|
D----------------------------------------------------------------|
A----------------------------------------------------------------|
E----------------------------------------------------------------|


Extra verse riff, could be bass 2:54

e-------------|---------|
B-------------|---------|
G-------------|---------|
D-121212-10-9-|-777-555-|
A-------------|---------|
E-------------|---------|


In between solo 1 and solo 2 - Fill 4:03

e----------------------------------------------------|
B----------------------------------------------------|
G----------------------------------------------------|
D-1010101010101010101010-1212121212121212-1010101010-|
A----------------------------------------------------|
E----------------------------------------------------|

Outro riff 4:49

e-------------------------------|
B-------------------------------|
G-1919-19/17-17/16-16/14-14/12--|
D-------------------------------|
A-1717-17/15-15/14-14/12-12/10--|
E-------------------------------|

Ending

e------|
B------|
G------|
D-5-5~-
A-3-3~-
E------


Song structre

Intro guitar 1
Intro guitar 2
Main riff
Verse
Main riff
Verse
Main riff
Chorus
Main riff
Verse
Main riff
Guitar 2 fill, guitar 1 plays verse riff ending w/ main riff
Verse
Main riff
Verse
Main riff
Chorus
Main riff
Verse
Main riff
Solo 1
Solo 2
Verse with extra verse riff
Main riff
Verse
Main riff
Chorus
Main riff
Verse
Main riff
Solo 1
Fill
Solo 2
Outro riff
Ending
Comments