Broken Lift - Afraid Chords & Tabs

 

Afraid Chords & Tabs

Broken Lift Chords & Tabs

Version: 1 Type: Tab 0 ratings
1 star 2 stars 3 stars 4 stars 5 stars
comments

Afraid Tab

intro:
e-----------------------------------------------------------------
B--------------------------------------------------------------(x2)
G-----------------------------------------------------------------
D---------------------------------------------2-------------------
A---4-4-4-4-4---2--0-0-0-0-0---4--2-2-2-2-2------4-4-4-4-4---4----
E-----------------------------------------------------------------
[ Tab from: http://www.guitartabs.cc/tabs/b/broken_lift/afraid_tab.html ]
main riff (chorus & bridge):
e--------------------------------------------------------------------
B--------------------------------------------------------------------
G--------------------------------------------------------------------
D--------------------------------------------------------------------
A--11-11-11-11-11---9--7-7-7-7-7--11--9-9-9-9-9---14--11-11-11-11-11-
E---9--9--9--9--9---7--5-5-5-5-5---9--7-7-7-7-7---12---9--9--9--9--9-

the verse part is mostly bass, but the intro riff starts to come in in the 
background (listen for timing).

solo (use wa-wa peddle):
e---9-9-9-9-9---7--5-5-5-5-5---9--7-7-7-7-7---12--9-9-9-9-9--9----
B-----------------------------------------------------------------
G-------------------------------------------------------------(x2)
D-----------------------------------------------------------------
A-----------------------------------------------------------------
E-----------------------------------------------------------------

order of riffs to make song:
1.intro
2.main riff
3.(bass verse)
4.main riff
5.(bass verse)
6.main riff
7.solo & intro
8. main riff
Comments