Broken Hope - Reunited Chords & Tabs

 

Reunited Chords & Tabs

Broken Hope Chords & Tabs

Version: 1 Type: Tab 0 ratings
1 star 2 stars 3 stars 4 stars 5 stars
comments

Reunited Tab

   
                            BROKEN HOPE - REUNITED
                           From the Album LOATHING
                      Copyright 1997 (Metal Blade Records)

                          Version 2.0 - April 2001

Transcribed by: Chris Ninman

For Questions, Comments, Newest Version, or Corrections contact
       Chris Ninman at:       snowballingblood@hotmail.com

Check Out DEATH WARP, With More Transcriptions On It:
               http://www.wam.umd.edu/~ekubica

.  - palm mute                    /  - slide up to
\  - slide down to                ~  - vibrato
h  - hammer on                    b  - bend
p  - pull off                          Suffixes for bend
ph - pinch harmonic                     f - full bend    h - half bend
*  - see comment                        r - release      t - tap bend
X  - percussion mute                    ~ - vibrato bend
@  - slight palm mute             () - ghost note, sustained note
"  - tremolo pick until next note  sh - semi harmonic

I'm not too sure on some parts of the song, but it's Broken Hope, so what
do you expect? If you have any suggestions on any part I would be more 
than happy to see it.

The solo appears courtesy of Pit Magazine. Thanks Pit.

Tune to D (D,G,C,F,A,D)

Riff 1 (1 time)
|------------------------------------------------------------------|
|------------------------------------------------------------------|
|------------------------------------------------------------------|gtr
|------------------------------------------------------------------| 1
|-----------------44444444--------77777777-------------------------|
|-0000000055554444--------55554444--------555544443333333311111111-|
|                                                                      
|------------------------------------------------------------------|
|------------------------------------------------------------------|
|------------------------------------------------------------------|gtr
|-----------------44444444--------77777777-------------------------| 2
|-------------------------------------------------3333333311111111-|
|-0000000055554444--------55554444--------55554444-----------------|


Riff 2 (1 time)
|----------------------------------------------------------|
|----------------------------------------------------------|
|----------------------------------------------------------|both
|-----------------55555555--------88888888-----------------| gtrs
|-5555666655556666--------66665555--------666655554---7----|
|----------------------------------------------------------|


Riff 3 (1 time)
|------------------------------------------|
|------------------------------------------|
|------------------------------------------|gtr
|------------------------------------------| 1
|-----------99------------------9933-------|
|-7777777700--888888887777777700----112211-|
|
|------------------------------------------|
|------------------------------------------|
|------------------------------------------|gtr
|------------------------------------------| 2
|-----------99------------------9933--2211-|
|-7777777700--888888887777777700----11-----|

Repeat Riff 1 (1 time)
Repeat Riff 2 (1 time)
Repeat Riff 3 (1 time)

Fill 1
|------|
|------|
|------|both
|------| gtrs
|------|
|-3hb--|


Riff 4 (1 time)
|--------------------------------------------------|
|--------------------------------------------------|
|--------------------------------------------------|gtr
|--------------------------------------------------| 1
|-------------------------5---4-3-----5---4-3------|
|-320000530000320000530000-656-5-54343-656-5-54343-|
| ........................ ... . ..... ... . .....
|--------------------------------------------------|
|--------------------------------------------------|
|--------------------------------------------------|gtr
|-------------------------5---4-3-----5---4-3------| 2
|--------------------------656-5-54343-656-5-54343-|
|-320000530000320000530000-------------------------|
  ........................ ... . ..... ... . .....

Riff 5 (1 time)
|--------------------------------------------------------------|
|--------------------------------------------------------------|
|--------------------------------------------------------------|gtr
|--------------------------------------------------------------| 1
|-------------------------5---4---5-4p3h4---5---4---5-4p3h4----|
|-320000530000320000530000-656-545-6-----545-656-545-6-----545-|
| ........................ ... ... .     ... ... ... .     ... 
|--------------------------------------------------------------|
|--------------------------------------------------------------|
|--------------------------------------------------------------|gtr
|-------------------------5---4---5-4p3h4---5---4---5-4p3h4----| 2
|--------------------------656-545-6-----545-656-545-6-----545-|
|-320000530000320000530000-------------------------------------|
| ........................ ... ... .     ... ... ... .     ...
 
Repeat Riff 4 (1 time)

Riff 6 (2 times)
|-------------------------------------------------------------|
|-------------------------------------------------------------|
|-------------------------------------------------------------|both
|---------------------ph--------------------------------------| gtrs
|-3--3---3hbr---2-----3hbr-ph----3--3---3----5555----3333-----|
|-1----1-----1--0-1-3------3hbr--1----1---1------3322----3311-|
                . .                                                   

Riff 6 continued
|-------------------------------------------------------------|
|-------------------------------------------------------------|
|-------------------------------------------------------------|gtr
|---------------------ph--------------------------------------| 1
|-3--3---3hbr---2-----3hbr-ph----3--3---3----------7777553-5--|
|-1----1-----1--0-1-3------3hbr--1----1---1--557755-----------|
|               . .
|-------------------------------------------------------------|
|-------------------------------------------------------------|
|-------------------------------------------------------------|gtr
|---------------------ph---------------------------999977-----| 2
|-3--3---3hbr---2-----3hbr-ph----3--3---3----779977------3-5--|
|-1----1-----1--0-1-3------3hbr--1----1---1-------------------|
                . .

Repeat Riff 4 (1 time)
Repeat Riff 5 (1 time)
Repeat Riff 4 (1 time)
Repeat Riff 6 (2 times)

Riff 7 (1 time)
|------------------------------------------|
|------------------------------------------|
|------12-----11-----------12-----11-------|gtr
|-9-10----8-9----9-10-9-10----8-9----------| 1
|------------------------------------5-6\--|
|------------------------------------------|
| . .     . .    . .  . .     . .                                    
|------------------------------------------|
|------------------------------------------|
|------------------------------------------|gtr
|------10------9-----------10------9-------| 2
|-7-8-----6-7-----7-8-7-8-----6-7----5-6\--| 
|------------------------------------------| 
  . .     . .     . . . .     . . 

Riff 8 (1 time)
|--------------------------|
|--------------------------|
|--------------------------|both
|--------------------------| gtrs
|-2---3-6-----2---2-5-2-3--|
|-0-----------0------------|
                  .   .
[ Tab from: http://www.guitartabs.cc/tabs/b/broken_hope/reunited_tab.html ]
Riff 9 (1 time)
|------------------------------------------|
|------------------------------------------|
|------12-----11-----------12-----11-------|both
|-9-10----8-9----9-10-9-10----8-9----------| gtrs
|------------------------------------7-6\--|
|------------------------------------------|
  . .     . .    . .  . .     . . 

Riff 10 (1 time)
|--------------------------|
|--------------------------|
|--------------------------|both
|--------------------------| gtrs
|-2---3-6-----2---2-5-1~---|
|-0-----------0------------|
                  .

Riff 11 (1 time)
|------------------------------------------------------------------|
|------------------------------------------------------------------|
|------------------------------------------------------------------|gtr
|----------------------------------------------------8"----7"------| 1
|-8"--7"10"--8"7"5"--7"--5"-------8"--7"10"--8"7"5"------7"---6"---|
|--------------------------6"-5"-----------------------------------|
| .   . .    . . .   .   . .  .   .   . .    . . .
|------------------------------------------------------------------|
|------------------------------------------------------------------|
|------------------------------------------------------------------|gtr
|--------------------------8"-7"---------------------8"----7"------| 2
|-8"--7"10"--8"7"5"--7"--5"-------8"--7"10"--8"7"5"------7"---6"---|
|------------------------------------------------------------------|
  .   . .    . . .   .   . .  .  .   . .    . . .  

Fill 2
|---------|
|---------|
|---------|gtr
|---------| 1
|---------|
|-3~--5~--|
|
|---------|
|---------|
|---------|gtr
|---------| 2
|-3~--5~--|
|---------|

Repeat Riff 7 (1 time)
Repeat Riff 8 (1 time)
Repeat Riff 9 (1 time)
Repeat Riff 10 (1 time)
Repeat Riff 11 (1 time)

Under solo
Riff 12 (4 times)
|------------------------------------------------------|
|------------------------------------------------------|
|-------------------------------------------------7----|both
|---------------3---------------3---------------3-5----| gtrs
|-2---2---2---2-1-2---2---2---2-1-2---2---2---2-1-5----|
|-0---0---0---0-1-0---0---0---0-1-0---0---0---0-1------|


Riff 13 (2 times)
|------------------------------------------------------------------|
|------------------------------------------------------------------|
|------------------------------------------------------------------|gtr
|-2--------------------3----------------------2--------------------| 1
|-2--------------------1----------------------2--------------------|
|-0--------------------1----------------------0--------------------|
|                                                                  
|------------------------------------------------------------------|
|------------------------------------------------------------------|
|------------------------------------------------------------------|gtr
|--------9"-12"-9"------------10"-13"-10"------------9"-12"-9"-----| 2
|-7"-10"-----------12"-8"-11"-------------13"-7"-10"-----------12"-|
|------------------------------------------------------------------|

Riff 13 (1st ending)
|-------------------------|
|-------------------------|
|-------------------------|gtr
|-6-----------------------| 1
|-4-----------------------|
|-4-----------------------|
|
|-------------------------|
|-------------------------|
|-------------------------|gtr
|---------13"-16"-13"-----| 2 
|-11"-14"-------------16"-|
|-------------------------|

Riff 13 (2nd ending)
|-------------------------|
|-------------------------|
|-------------------------|gtr
|-6-----------------------| 1
|-4-----------------------|
|-4-----------------------|
|
|-------------------------|
|-------------------------|
|-------------------------|gtr
|---------13"-16-13-------| 2
|-11"-14"-----------16~---|
|-------------------------|

Repeat Riff 4 (1 time)
Repeat Riff 5 (1 time)
Repeat Riff 4 (1 time)
Repeat Riff 6 (2 times)

The solo is in the Guitar Corner section of Pit Magazine issue #22.
I have asked for their permission to post it. They graciously have
allowed me to post it. My deepest thanks goes to Pit and its staff for
their permission. I have done no work on the solo. There are a few 
harmony parts in the solo that were not included in the tab. Thank
Pit if you enjoy this solo.

Solo
|------------------------------------15--------12-----------------------|
|--------------------------------------13-12-13--13-12-13-15-13-12------|
|-12--------9-------12-------12-11--------------------------------14-12-|
|---10-9-10--10-9-10--10-9-10--9----------------------------------------|
|-----------------------------------------------------------------------|
|-----------------------------------------------------------------------|

|--------------------------------------------------17h20|
|-------------------------------------------------19----|
|-12"--14"--16"17"16"14"14"16"17"19"17"16"17-----17-----|
|-------------------------------------------------------|
|-------------------------------------------------------|
|-------------------------------------------------------|

|-t24p20p17t24p20p17--t22p19p17t22p19p17--|
|-----------------------------------------|
|-----------------------------------------|play
|-----------------------------------------|twice
|-----------------------------------------|
|-----------------------------------------|

|-t22p19p15t22p19p15--t20p17p15t19p17p15--|
|-----------------------------------------|
|-----------------------------------------|play
|-----------------------------------------|twice
|-----------------------------------------|
|-----------------------------------------|

|-12----------------------------------------------------------15---------|
|---13-12-13-15-13-12--12-13-12--------12-13-------15-16-15-16--16-15-16-|
|--------------------14--------14-12-14----------------------------------|
|------------------------------------------------------------------------|
|------------------------------------------------------------------------|
|------------------------------------------------------------------------|

|-------------------------------------------------------------|
|-18-16-15--------------------------8-7-----7-8-7-------------|
|---------17-15-----7----9-9hb--7\-----9-7-9-------5\--4-5-4--|
|-------------------bar---------------------------------------|
|-------------------dive--------------------------------------|
|-------------------------------------------------------------|

|-12----------------------------------------------17--------------------|
|---13-12-13-15-13-12-------------------------------19-17-19-20-19-17---|
|--------------------14-12-14-16-17-16-14----------------------------19-|
|----------------------------------------16-14--------------------------|
|-----------------------------------------------------------------------|
|-----------------------------------------------------------------------|

|---------------------19h22p19----------------------------------------|
|-17-19-17-----------20-------20-19-20-22-20-19-----------------------|
|---------19-17-----19-------------------------21-19----17-----15-----|
|------------------------------------------------------raise---bar----|
|-------------------------------------------------------bar----dive---|
|---------------------------------------------------------------------|
Comments