Broken Cord - I Remember Chords & Tabs

 

I Remember Chords & Tabs

Broken Cord Chords & Tabs

Version: 2 Type: Bass Tab 0 ratings
1 star 2 stars 3 stars 4 stars 5 stars
comments

I Remember Bass Tab

                  COME IN AFTER CLEAN GUITAR INTRO

----------------------------------------------------------------------|
----------------------------------------------------------------------|
--5555------7777------------------------------------------------------|
-------5555------77---------------------------------------------------|
X 4

----------------------------------------------------------------------|
----------------------------------------------------------------------|
--5555-----------55-77------------------------------------------------|
-------5555-3333------------------------------------------------------|
X 4

----------------------------------------------------------------------|
----------------------------------------------------------------------|
--5555------7777------------------------------------------------------|
-------5555------77---------------------------------------------------|
X 4
[ Tab from: http://www.guitartabs.cc/tabs/b/broken_cord/i_remember_btab_ver_2.html ]
----------------------------------------------------------------------|
----------------------------------------------------------------------|
--5555-----------55-77------------------------------------------------|
-------5555-3333------------------------------------------------------|
X 4

----------------------------------------------------------------------|
----------------------------------------------------------------------|
----------------------------------------------------------------------|
--55555555/12-12-12-12-12-12-12-12------------------------------------|
X 1

----------------------------------------------------------------------|
----------------------------------------------------------------------|
--5555-----------55-77------------------------------------------------|
-------5555-3333------------------------------------------------------|
UNTIL THE END OF THE SONG.

ITS A SIMPLE BASSLINE BUT SOUNDS GOOD WITH THE SONG!
Comments