Broken Cedars - Station Chords & Tabs

 

Station Chords & Tabs

Broken Cedars Chords & Tabs

Version: 1 Type: Tab 0 ratings
1 star 2 stars 3 stars 4 stars 5 stars
comments

Station Tab

   
http://www.itickets.com/artists/1889.html
************************************************************************
Artist: Broken Cedars
Song: Station
Tabbed By: jr_bilodeau@hotmail.com
************************************************************************

Tuning: Standard
x - Mute with playing hand (not strumming)
p – Pull Off
s – Slap strings lightly to stop them from ringing with strumming hand


[Intro/Verse]

E ----------------------------------------------------------------------
B ----------------------------------------------------------------------
G --------------------------------------------------9-9-9-s--9-9-9-9-xx-
D -9-9-9-s--9-9-9-9-xx--11-11-11-s--11-11-11-11-xx--9-9-9-s--9-9-9-9-xx-
A -9-9-9-s--9-9-9-9-xx--9--9--9--s--9--9--9--9--xx--7-7-7-s--7-7-7-7-xx-
E -7-7-7-s--7-7-7-7-xx--6--6--6--s--6--6--6--6--xx----------------------

E ---------------------
B ---------------------
G ---------------------
D -4-4-4-s--4-4-4-4-xx-
A -4-4-4-s--4-4-4-4-xx-
E -2-2-2-s--2-2-2-2-xx-


[Chorus]

E ----------------------------------------------------------------------
B ----------------------------------------------------------------------
G -9-9-9-9-9-9-9-9------------------------------------------------------
D -9-9-9-9-9-9-9-9--11-11-11-11-11-11-11-11--12-12-12-12-12-12-12-12----
A -7-7-7-7-7-7-7-7--9--9--9--9--9--9--9--9---12-12-12-12-12-12-12-12----
E ------------------7--7--7--7--7--7--7--7---10-10-10-10-10-10-10-10----

E -------------------------
B -------------------------
G -11-11-11-11-11-11-11-11-
D -11-11-11-11-11-11-11-11-
A -9--9--9--9--9--9--9--9--
E -------------------------


[Interlude]
[ Tab from: http://www.guitartabs.cc/tabs/b/broken_cedars/station_tab.html ]
E --------------------------------------------------------------------
B --------------------------------------------------------------------
G -----9p8------9-9p8---------------------------------9p8------9-9p8--
D ---------9----------9-------9p8------9-9p8-------------9----------9-
A -7777-------77-----------------9---------------7777-------77--------
E -----------------------7777--------77------11-----------------------
                       	      
E ---------------------------|-----|
B ---------------------------|-----|
G -----11p8-------11-11p8----|--4--|[Ending Chord]
D ----------11------------11-|--4--|[Last Time Only]
A -9999--------99------------|--2--|
E ---------------------------|-----|


[Verse 2]

E --------------------------------------------------------------
B --------------------------------------------------------------
G --------------------------------------------------------------
D -9-9-9-9-9-9-9-9-9-9-9-9--11-11-11-11-11-11-11-11-11-11-11-11-
A -9-9-9-9-9-9-9-9-9-9-9-9--9--9--9--9--9--9--9--9--9--9--9--9--
E -7-7-7-7-7-7-7-7-7-7-7-7--6--6--6--6--6--6--6--6--6--6--6--6--

E --------------------------------------------------
B --------------------------------------------------
G -9-9-9-9-9-9-9-9-9-9-9-9--------------------------
D -9-9-9-9-9-9-9-9-9-9-9-9--4-4-4-4-4-4-4-4-4-4-4-4-
A -7-7-7-7-7-7-7-7-7-7-7-7--4-4-4-4-4-4-4-4-4-4-4-4-
E --------------------------2-2-2-2-2-2-2-2-2-2-2-2-

[Order]

Intro     x2
Verse     x2
Chorus    x2
Interlude x2
Verse 2   x2
Chorus	  x2
Interlude x2
Chorus    x2
Interlude x2


[Song]

[Verse 1]
Hey, so where's your hope now
Just live it up and die 
Are your fickle pleasures
Too tasteful to pass by well
You’re willing to take
But you cannot receive 
The greatest gift of all time
If you would just believe

[Chorus]
So you waste the night away
Tears and pain added to yesterdays
But you still say 
I need no one else but me 
I don't need someone to help me see 
Or set me free 

[Verse 2]
If this worlds so great
And man is not deceased
Then tell me why there's sorrow
And nothing fills the need 
This hunger inside
Is only filled by One
And that One is my Jesus 
the Fathers only Son
Comments