Broken - Black Pedals Chords & Tabs

 

Black Pedals Chords & Tabs

Broken Chords & Tabs

Version: 1 Type: Bass Tab 0 ratings
1 star 2 stars 3 stars 4 stars 5 stars
comments

Black Pedals Bass Tab

   
                            Black Pedals

Regular tuning (e,a,d,g)

(intro)           
E--12/4------2----4------2----4------2----4------2-4-4--
A-------7--2--------7--2--------7--2--------7--2--------
D-------------------------------------------------------
G-------------------------------------------------------

(verses)
E--4---4-----2--
A----7---2-2---- 
D--------------- (x5 except the fifth time let the last note 
G---------------  ring out into chorus)

[ Tab from: http://www.guitartabs.cc/tabs/b/broken/black_pedals_btab.html ]
(chorus)
E--4------2----4------2----4------2----4------2-4-4-----
A----7--2--------7--2--------7--2--------7--2-----------
D-------------------------------------------------------
G-------------------------------------------------------


(bridge) same as the verses

(outro)
E--4------2----4------2-4-4-----------------------------
A----7--2--------7--2-----------------------------------
D-------------------------------------------------------
G-------------------------------------------------------

its pretty easy to figure... check out the rest of the Broken tabs 
and the web site ( www.brokentheband.8m.com ).... well there u have it

                                   tY
Comments