Brodie - When Im With You Chords & Tabs

 

When Im With You Chords & Tabs

Brodie Chords & Tabs

Version: 1 Type: Tab 0 ratings
1 star 2 stars 3 stars 4 stars 5 stars
comments

When Im With You Tab

   
This is another GREAT song by brodie.


Intro / Verse
-----------------------
-----------------------
-----------------------
-----6--3--4--8--6--4--
--4--4--1--2--6--4--2--
--2--------------------

Chorus
-----------------------
-----------------------
-----------------------
-----6--8--4--8--6--4--
--4--4--6--2--6--4--2--
--2--------------------


Rhythm Guitar under the Harmonic Thingy
--------------------------
--------------------------
--------------------------
-6-8-4-6-----6-8-4-6-4----
-4-6-2-4-4-4-4-6-2-4-2----
---------2-1--------------


Harmonic Thingy
---------------------------
---------------------------
---------------------------
-9-9-9-9------9-9---9-9----
---------9--9-----9-----9--
---------------------------

<----------------------->
          n.h.

Guitars Playing the melody after the harmonic thingy
[ Tab from: http://www.guitartabs.cc/tabs/b/brodie/when_im_with_you_tab.html ]
Guitar One
-----------------------------------------------------------
-----------------------------------------------------------
-6-6-6-6-----------6-6-6-6-------------6-6-6-6---11--10--6-
-------------------------------------------------9---8---4-
-4-4-4-4-----------4-4-4-4-------------4-4-4-4-------------
-----------------------------------------------------------

Guitar Two
-----------------------------------------------------------
-----------------------------------------------------------
----------4-4-4-4-----------6--11-10-6-----------15--13--11
-----------------------------------------------------------
----------6-6-6-6-----------4--9--8--4-----------13--11--9-
-----------------------------------------------------------
LYRICS

It dosen't matter what we do
just as long as I'm with you
I'd do the same thing every day

I've never felt like this before
you keep me coming back for more
and you know I'm here to stay

I think about when we first met
the night I never will forget
I couldn't keep my eyes off you

A classic case of boy meets girl
you smiled at me and changed my world
now I feel that way times 2

Will you hang out with me tonight
I'm sure my day will be alright
if I see your pretty face

And every second that goes by
I think of all the reasons why
my life gets better everyday

When I'm with You (x8)


And presto! a song that makes the chicks drool! ;)
Comments