Brodie - One Of A Kind Chords & Tabs

 

One Of A Kind Chords & Tabs

Brodie Chords & Tabs

Version: 2 Type: Tab 0 ratings
1 star 2 stars 3 stars 4 stars 5 stars
comments

One Of A Kind Tab

------------------------------------------------------------
                     Brodie-One of a Kind
------------------------------------------------------------
Tabbed by Sam (Newfoundglory23)
This tab should be perfect, and if you like brodie you'll put up more tabs of them on this
site!


Intro / Verse 
|-----------|
|-----------|
|-----------|
|--7--------|
|--5--7--5--|
|-----5--3--|

Intro Lead
|--------------------------------------------------------------------------------------|
|--------------------------------------------------------------------------------------|
|--12--11------------------12--11------------------------------12--11------------------|
|----------12--12--14--12----------12--14--14--12--11--12--12----------12--12--14--12--|
|--------------------------------------------------------------------------------------|
|--------------------------------------------------------------------------------------|

Chorus
|-----------------|
|-----------------|
|-----------------|
|--7--------4-----|
|--5--7--5--2--7--|
|-----5--3-----5--|
[ Tab from: http://www.guitartabs.cc/tabs/b/brodie/one_of_a_kind_tab_ver_2.html ]
Bridge
|-----------|
|-----------|
|-----------|
|-----------|
|--5--5--7--|
|--3--2--5--|

Solo
|----------------------------------------------------------|
|----------------------------------------------------------|
|-7--7--9--11--9--9--11--12--12--11---------11--9---------9|
|------------------------------------12------------12-12---|
|----------------------------------------10----------------|
|----------------------------------------------------------|

|----------------------------------------------------------|
|----------------------------------------------------------|
|-11---14----------16--14----------11--12--11--------11--9-|
|----------12--14----------12--14--------------12----------|
|-------------------------------------------------10-------|
|----------------------------------------------------------|

|----------------------------------------------------------|
|----------------------------------------------------------|
|---------9------------------------------------------------|
|-12--11-----11--10----------------------------------------|
|----------------------------------------------------------|
|----------------------------------------------------------|
Comments