Broder Daniel - Whirlwind Chords & Tabs

 

Whirlwind Chords & Tabs

Broder Daniel Chords & Tabs

Version: 4 Type: Tab 0 ratings
1 star 2 stars 3 stars 4 stars 5 stars
comments

Whirlwind Tab

   
intro: F#m E (gitarr slinga)

g--------11-11--------------------9-9------------
d---------------11-11-9--7------------9-9-7/11---
a--9-9-----------------------7-7-----------------

2ggr.(samtidigt spelas " mellanspelet")

F#m E
the only one I love
E F#m
she was a superstar
F#m E
the only one I love
E A
she was a superstar
A E
the only one I love
E F#m
she was a superstar
F#m E
aaah

mellanspel: + slinga

e----9---7---5---7---9-------7--5---4--5--7-------------------
H-------------------------------------------------------------
G-------------------------------------------------------------
D-------------------------------------------------------------
A-------------------------------------------------------------
E------------------------------------------------------------- 

(slinga)

g--------11-11--------------------9-9------------
d---------------11-11-9--7------------9-9-7/11---
a--9-9-----------------------7-7-----------------
[ Tab from: http://www.guitartabs.cc/tabs/b/broder_daniel/whirlwind_tab_ver_4.html ]
F#m E
I dream a dream that canīt come true 
E F#m
I can never be with her
F#m E
I dream a dream that canīt come true
E
oooh
A E
the only one I love
E F#m
she was a superstar
F#m E
aaah
A E
if I was as whirlwind
E F#m
I could sweep her heart away
F#m E
yeah yeah yeah

mellanspel: 2 ggr sen "slinga" + "mellanspel"

e----9---7---5---7---9-------7--5---4--5--7-------------------
H-------------------------------------------------------------
G-------------------------------------------------------------
D-------------------------------------------------------------
A-------------------------------------------------------------
E-------------------------------------------------------------

F#m E 
oooh I am
E F#m
a weak heart
F#m E
I am a weak heart
E A
a weak heart to break
A E
and a lost love to take
E F#m
a lost love to take
F#m A
aaah
A E
I was a whirlwind
E F#m
and she, she was a superstar
F#m E
ah ah ah ah ah

"slinga"

A E
the only one I love
E F#m
the only one I love
F#m E
aaah
Comments