Broder Daniel - Whirlwind Chords & Tabs

 

Whirlwind Chords & Tabs

Broder Daniel Chords & Tabs

Version: 3 Type: Tab 0 ratings
1 star 2 stars 3 stars 4 stars 5 stars
comments

Whirlwind Tab

   
Whirlwind - Broder Daniel 

slinga 1:
E-----2-2-------------------------
H--------2-2------5-5-------------   1x  +  3x samtidigt som slinga 2
G-----------4-2------4-4--2-2/5-5-
D--4-4---------2-2----------------

slinga 2:
e--9--7--5--7--9----7--5--4--5--7-


F#m            E
the only one I love
E              F#m
she was a superstar
F#m            E
the only one I love
E              A
she was a superstar
A              E
the only one I love
E              F#m
she was a superstar
F#m E
aaah


slinga 1 + slinga 2


F#m                             E
I dream a dream that can´t come true 
E                   F#m
I can never be with her
F#m                             E
I dream a dream that can´t come true
E    A
wohooah
A              E
the only one I love
E              F#m
she was a superstar
F#m E A
aaah
A                E
if I was as whirlwind
E                       F#m
I could sweep her heart away
F#m       E
yeah yeah yeah

slinga 1  1x  +  3x samtidigt som slinga 2
[ Tab from: http://www.guitartabs.cc/tabs/b/broder_daniel/whirlwind_tab_ver_3.html ]
F#m    E 
oooh I am
E      F#m
a weak heart
F#m         E
I am a weak heart
E               A
a weak heart to break
A                  E
and a lost love to take
E              F#m
a lost love to take
F#m E
aaah
A            E
I was a whirlwind
E                       F#m
and she, she was a superstar
F#m         E
ah ah ah ah ah

slinga 1 (dubbla slag):
E-----2222-------------------------------
H---------2222---------5555--------------
G-------------44-22---------4444-22/5-55-
D--4444------------2222------------------

solo:
G---------------------9-7-7--7-9-7-9-7-7--7-9-7------
D--2--2-4-6-/11-9-9--9-------------------------9-9-9-

G---------------------9-7-7--7-9-7-9-7-7--7-9-7-11-9-9--9-11-9-11-9-9--9-11-
D--2--2-4-6-/11-9-9--9------------------------------------------------------

A E F#m E* A  (heavy distortion)

upptakt börjar vid E*:
D--9--11--13--14

A              E
the only one I love
E              F#m
the only one I love
F#m E A
aaah

A  E
oooh
E F#m
oooh
F#m E
oooh
A  E
oooh
E F#m
oooh
F#m E
oooh
A2

sångslinga:
H----7-5-4-2--5-4-2-0---0-4-2-
G--4------------------1-------

ackord:

A 577655
A2 007650
E  779997
F#m 9.9.11.10.9
Comments