Broder Daniel - I'll Be Gone Chords & Tabs

 

I'll Be Gone Chords & Tabs

Broder Daniel Chords & Tabs

Version: 2 Type: Tab 0 ratings
1 star 2 stars 3 stars 4 stars 5 stars
comments

I'll Be Gone Tab

   
Im really not sure about all this, I tabbed it while I saw a movie with it on. I don't even got the cd. But I think its sound great.

Riff 1/Intro
e-|---------------------------------------------------------------|
B-|--------------------------------------12-12-10-9------10-9-|
G-|--------------------------------------------------11-11------|
D-|--------11-11-9-7------14-12-------(9--9--7--6-4--4--7-6)|
A-|--9-9---------------5-5----------7-7------------------------|
E-|--------------------------------------------------------------|
[ Tab from: http://www.guitartabs.cc/tabs/b/broder_daniel/ill_be_gone_tab_ver_2.html ]
Chords in this song:
        F#     D5    A      E 
e-|------------9------------5-----7--------------------------|
B-|------------11----------5------9---------------------------|
G-|-----------11----7-----6------9-----------------------------|
D-|-----------11----7-----7------9--------------------------|
A-|-----------9-----5-----7------7----------------------------|
E-|------------------------5------0-------------------------|

Chorus:
F# D5 E F# combine that with riff 1.

Verse
F# D E F#

Pre Chorus:
F# D A E F

Solo:
e-|-------------------------------------------------------|
B-|-------------------------------------------------------|
G-|-------------------------------------------------------|
D-|--11-9-7-14-16-12--12-12-14-9-----------------|
A-|-------------------------------------------------------|
E-|-------------------------------------------------------|

e-|-------------------------------------------------------|
B-|-------------------------------------------------------|
G-|-14-13-11----14-13-14-13-11--------------------|
D-|-------------14-----16-------------------------------|
A-|-------------------------------------------------------|
E-|-------------------------------------------------------|

Comments