Britney Spears - I Love Rock N Roll Chords & Tabs

 

I Love Rock N Roll Chords & Tabs

Britney Spears Chords & Tabs

Version: 1 Type: Tab 0 ratings
1 star 2 stars 3 stars 4 stars 5 stars
comments

I Love Rock N Roll Tab

Britney Spears -  I Love Rock'N'Roll
(originaly recorded by Joan Jett & The Blackhearts)


"I love Rock 'N Roll, So put another dime in the jukebox, Baby!!!"  SAY NO MORE!!!
Any doubts, commments, requests, etc, check the botton!  =D

							PattySaint



"Hey!? Is this thing on?"

INTRO:

---------------------------------------------------------------
---------------------------------------------------------------
---------------2-2--4-4----------------------2-2---4-----------
-2-2--2-2----5-2-2--4-4-5----2-2----2-2----5-2-2---4--5---2-2--
-2-2--2-2----5----------5----2-2----2-2----5----------5---2-2--
---------------------------------------------------------------
       

-----5-3---------------------------------------------
---------4-2-0---------------------------------------
-----------------------------------------------------
-2-2--------------2-2---------------------------2-2--
-2-2--------------2-2---------------------------2-2--
-----------------------------------------------------
          I saw him dancing there by the record machine...



-----5-3--------------------------------------------
----------4-2-0-------------------------------------
---------------------------------------------4-4----
-------------------2-2-----------------------4-4----
-------------------2-2------------------------------
----------------------------------------------------
               I knew he must have been about seventeen...

-----5-3-------------------------------------
----------4-2-0------------------------------
--------------------2-2---------------4-4----
--------------------2-2---------------4-4----
---------------------------------------------
---------------------------------------------
                The beat was going strong...


-----------------------------------------
-----------------------------------------
----------------------------2-let ring!--
----2-2---------------------2------------
----2-2----------------------------------
-----------------------------------------
   Playing my favourite song



Just let ring!                       XStop ringing!   
---------------------------------------------------
---------------------------------------------------
---------------------------------------------------
---------------------------------------------------
---------------------------------------------------
---------------------------------------------------
And I could tell it wouldn't be long, until he was with me

(No chords)
YEAH Me

-------------------------------------------------------------------
-------------------------------------------------------------------
-------------------------------------------------------------------
-------------------------------------------------4-4-4-4-4-4-4-4---
-------------------------------------------------4-4-4-4-4-4-4-4---
-------------------------------------------------------------------
And I could tell it wouldn't be long, until he was with me...





-----CHORUS:----- 
---------------------------------------------------------------------
---------------------------------------------------------------------
---------------------------------2-2--------------------4-4----------
---------2-2-------2-2-------5---2-2--------------------4-4----------
---------2-2-------2-2-------5---------------------------------------
---------------------------------------------------------------------
I love Rock 'N Roll, So put another dime in the jukebox, Baby



                                                      END OF CHORUS
--------------------------------------------------------------------
--------------------------------------------------------------------
----------------------------2-2---------------------4---------------
----2-2-------2-2-------5---2-2---------------------4------5---2-2--
----2-2-------2-2-------5----------------------------------5---2-2--
--------------------------------------------------------------------
I love Rock N' Roll, So come and take your time and dance with me... Ouw !


[ Tab from: http://www.guitartabs.cc/tabs/b/britney_spears/i_love_rock_n_roll_tab.html ]


----------5-3--3-0-------------------------------------------------
--------------------4-2-0------------------------------------------
-------------------------------------------------------------------
---2-2----------------------2-2-------------------------------2-2--
---2-2----------------------2-2-------------------------------2-2--
-------------------------------------------------------------------
                He smiled, so I got up and asked for his name"


---5-3--3-0--------------------------------------------------------
--------------4-2-0------------------------------------------------
-------------------------------------------------------------4-4---
--------------------2-2--------------------------------------4-4---
--------------------2-2--------------------------------------------
-------------------------------------------------------------------
               That don't matter," he said, "'cause it's all the same."



---5-3--3-0------------------------------------
--------------4-2-0----------------------------
----------------------2-2---------------4-4----
----------------------2-2---------------4-4----
-----------------------------------------------
-----------------------------------------------
                I said, "Can I take you home...



-----------------------------------
-----------------------------------
------------------2--let ring!-----
---2-2------------2----------------
---2-2-----------------------------
-----------------------------------
 where we can be alone?"


Let ring!                                XStop ringing!
--------------------------------------------------------
--------------------------------------------------------
--------------------------------------------------------
--------------------------------------------------------
--------------------------------------------------------
--------------------------------------------------------
And next we were moving on... and he was with me, yeah, me


------------------------------------------------
------------------------------------------------
------------------------------------------------
----------------------------4-4-4-4-4-4-4-4-----
----------------------------4-4-4-4-4-4-4-4-----
------------------------------------------------
And we were moving on singin the same old song



----PLAY CHORUS----

      
-----------------------------=------------------------------
------5-3----------------------5-3-------------------4-4----
-----------4-2-0-------------------4-2-0-------------4-4----
-2-2--------------2-2----2-2----------------2-2-------------
-2-2--------------2-2----2-2----------------2-2-------------
------------------------------------------------------------
I love Rock N' Roll
'cause it suits my soul
I love Rock N' Roll Yeah....


---5-3--3-0------------------------------------
--------------4-2-0----------------------------
----------------------2-2---------------4-4----
----------------------2-2---------------4-4----
-----------------------------------------------
-----------------------------------------------
                I said, "Can I take you home...


-----------------------------------
-----------------------------------
------------------2--let ring!-----
---2-2------------2----------------
---2-2-----------------------------
-----------------------------------
 where we can be alone?"


Let ring!                                XStop ringing!
--------------------------------------------------------
--------------------------------------------------------
--------------------------------------------------------
--------------------------------------------------------
--------------------------------------------------------
--------------------------------------------------------
And next we were moving on... and he was with me, yeah, me
And we were moving on singin the same old song....


----PLAY CHORUS---- (5 times)




LIKED IT? SO, THANK ME NOW! Or... just talk to me...   =)
MSN: pattyparrela@hotmail.com
ICQ: 30799458
Comments