Britney Spears - Hit Me Baby One More Time Chords & Tabs

 

Hit Me Baby One More Time Chords & Tabs

Britney Spears Chords & Tabs

Version: 1 Type: Tab 0 ratings
1 star 2 stars 3 stars 4 stars 5 stars
comments

Hit Me Baby One More Time Tab

Group: Britney Spears
2Song Name: Baby One More Time
4Release: ?
4Submitted By: Ned
5Email: shayomouf@yahoo.com
6Song Text:

My first tab, so bear with me, folks! I'm hardly a huge fan of Britney.
Usually I just put it on mute and watch but there ya go. I'm a Radiohead
fan meself so its kind of weird for me to be doing a pop tune like this.
But, alas, I was just listening to the song and I thought
"Hey I'll learn this on guitar and play it at parties!"
So here it is!

           *****************************************************
               Britney Spears's 'Hit Me Baby One More Time'
           *****************************************************

By the way I don't know the lyrics so don't email me about them.
There's nothing worse than an angry Britney Spears fan. Trust me. I know.

*******
Intro
*******
(on big ol' piano, but you can play it on guitar)

--------------------
-------------------
--------------------
-3---55-------------
-1---33-------------
--------------------

*******
Verse
*******

(just strum the notes. I couldnt be bothered to type every single strum out)

----------------------------------------
----------------------------------------
-5--------------------------------------
-5---------------5-------------------5--
-3---------------5-------------------5--
-----------------3-----------------1~3--

oh baby baby...how was i supposed to know...

--------------------------------------------
--------------------------------------------
---------------------8888---12121212--------
---------------------8888---12121212--------
---------------------6666~~~10101010--------
--------------------------------------------

(something something)buy your si-yi-de-yeah

!!!!!!!!!!!!!!!
By the way...
!!!!!!!!!!!!!!!

Can't make out all the wah-wah parts, but one of them is on
the B string played like 7-7-6-4.

                         !!!!!!!!!!!!!!!!!!!!!!!!
                           Lead Guitar for verse
                         !!!!!!!!!!!!!!!!!!!!!!!!

Lead guitar can play her vocals if you have two guitarists. I've tabbed
her general vocals for the verse out for you good people.
[ Tab from: http://www.guitartabs.cc/tabs/b/britney_spears/hit_me_baby_one_more_time_tab.html ]
------------------------------------------------------------------------
------------------------------------------------------------------------
---------5-5-5-5-5------5-3-3--3-3-3-----------5-5-5-5-6-6-6~5----------
-------------------------------------3~~5-------------------------------
------------------------------------------------------------------------
------------------------------------------------------------------------
        oh baby baby    how was I
                        supposed     to know   la da dada da da da yeah!
                                                (I dont know the lyrics)

**********
Bridge
**********

-----------------------------------------------------------------------
-----------------------------------------------------------------------
-5-----------3----------------------------8-------------------------12-
-5-----------3----------------------------8-------------------------12-
-3-----------1----------------------------6-------------------------10-
-----------------------------------------------------------------------

Show me......how ya want it to be....coz baby.... he doesnt need to know..

********
Chorus
********
(same as bridge, but timed a tad different. Just listen to the song.)

                        !!!!!!!!!!!!!!!!!
                         Lead for Chorus
                        !!!!!!!!!!!!!!!!!
(repeatedley pick them)
------------------------------------------------------------------------
----------------4--------------6----------------8-----------------------
------5-----------------------------------------------------------------
------------------------------------------------------------------------
------------------------------------------------------------------------
------------------------------------------------------------------------

My loneliness...is killing me..i must confess...i still believe
When I'm not(etc)I lose my(etc)Give me a sign..Hit me Baby One More Time!

                               !!!!!!
                                Also
                               !!!!!!

Play this when the second "still believe" comes along (about 58 seconds into
song the first time, after "i must confess I still believe") and also after
the 'Hit me baby one more time' in the chorus.

(after playing the high G (the one on the 10th fret))

B String  =   ---13-----12----13--

             "...still..buh...leive..."

Questions? Comments? Marriage Proposals? email shayomouf@yahoo.com
Visit my website at http://abitofned.freeservers.com
Fan Q.

           ~Ned

"My middle name could be Danger...but it's John."
                                                ~Eddie Izzard

submit: Send
Comments