British Sea Power - Remember Me Chords & Tabs

 

Remember Me Chords & Tabs

British Sea Power Chords & Tabs

Version: 1 Type: Tab 0 ratings
1 star 2 stars 3 stars 4 stars 5 stars
comments

Remember Me Tab

   
#----------------------------------PLEASE NOTE---------------------------------#
#This file is the author's own work and represents their interpretation of the #
#song. You may only use this file for private study, scholarship, or research. #
#------------------------------------------------------------------------------##

                                   REMEMBER ME
                        As recorded by British Sea Power
                 Tabbed by James Thompson (atroxmundus@hotmail.com)

Standard tuning (E A D G B E)

Heard this on MTV2 and thought it was quite good so I tabbed it. Not sure how
accurate it is, but it should give you at least an idea of what to play until 
someone tabs it better.


Introduction:

Here's the little bass intro...
|------------------------------------|
|------------------------------------|
|-10-10-10-9--7-7-7-5----------------|
|----------------------7-7-7-5--3----|

Then the high pitched da da daaas...

|-12--------------12-----------12----------|
|----15--------------15-----------15-------|
|-------16---------------------------------|
|----------17-----------17-----------17----|
|------------------------------------------|
|------------------------------------------|

Then this happens...
  G5
|--------------|----------------|
|--------------|----------------|
|--------------|----------------|
|-x-x-x-x-5----|-x-5---x-x-5----|
|-x-x-x-x-5----|-x-5---x-x-5----|
|-x-x-x-x-3----|-x-3---x-x-3----|

Play this twice...
|-----------------------------------------------|
|-----------------------------------------------|
|-12--12-12-11----------------------------------|
|---------------14--14-14-12--------------------|
|----------------------------14--14-14-12-------|
|-----------------------------------------15----|

Then while these chords are playing...
  G5                B5                E5                G5
|-----------------|-----------------|-----------------|-----------------|
|-----------------|-----------------|-----------------|-----------------|
|-----------------|-----------------|-9-9-x-9-9-9-9-9-|-----------------|
|-5-5-x-5-5-5-5-5-|-9-9-x-9-9-9-9-9-|-9-9-x-9-9-9-9-9-|-5-5-x-5-5-5-5-5-|
|-5-5-x-5-5-5-5-5-|-9-9-x-9-9-9-9-9-|-7-7-x-7-7-7-7-7-|-5-5-x-5-5-5-5-5-|
|-3-3-x-3-3-3-3-3-|-7-7-x-7-7-7-7-7-|-----------------|-3-3-x-3-3-3-3-3-|
[ Tab from: http://www.guitartabs.cc/tabs/b/british_sea_power/remember_me_tab.html ]
...do this little bit...its not 100% accurate but its gives an idea of
what to play. Do this section twice in total.
|---------------------------------------------------------|
|---------------------------------------------------------|
|-----------------------11b12r11b12r11--------------------|
|-14b15r14-14b15r14---------------------------------------|
|--------------------14-----------------14-14-14-14-14----|
|---------------------------------------------------------| x2

|-------------------------------------------------------------------|
|-------------------------------------------------------------------|
|----------------------11b12r11b12r11b12r11----11-------------------|
|-14b15r14-14b15r14-------------------------14----------------------|
|-------------------14----------------------------14-14-12-12-14----|
|-------------------------------------------------------------------|

G
Do you worry about your health 
B
Do you watch it slowly change
Em
And when you listen to yourself
G
Does it feel like somebody else
G                                    B
And did you notice when you began to disappear
Em
Was it slowly at first
G
Until there was nobody really there
G
Increment by increment
B
Increment by increment
Em
Increment by increment 

CHORUS (See tab below)

Oh remember me
Yeah remember me
Oh remember me 

Yeah remember me
Oh remember me
Will you remember me? 

(Now just improvise in the G major pentatonic scale. The chords
for the second verse are the same as the first)

Did half of you pass away
What about the other half
Yeah what about the other half
Whatever!
We're all part of the same old bloody regime
With someone taking it out 
Whilst you were putting it in
Increment by increment
Increment by increment
Increment by increment 

CHORUS

CHORUS (but this time it has slightly different words)
Oh remember me
Yeah remember me
Oh remember me 

From the here and now to eternity
Will you remember me?


Chorus:
  G5             F#5        E5             D5
|-------------------------|-------------------------|
|-------------------------|-------------------------|
|-------------------------|-------------------------|
|-17-17-17-17-17-16-16-16-|-14-14-14-14-14-12-12-12-|
|-17-17-17-17-17-16-16-16-|-14-14-14-14-14-12-12-12-|
|-15-15-15-15-15-14-14-14-|-12-12-12-12-12-10-10-10-|
  Oh remember me            Yeah remember me

  B5        A5      G
|-----------------|-----------------|
|-----------------|-----------------|
|-----------------|-----------------|
|-9-9-9-9-9-7-7-7-|-5-5-5-5-5-5-5-5-|
|-9-9-9-9-9-7-7-7-|-5-5-5-5-5-5-5-5-|
|-7-7-7-7-7-5-5-5-|-3-3-3-3-3-3-3-3-|
  Will you remember me?


That's just about it. Hope that helps you get started. 

Thanks to http://www.hol.org.uk/ewr/songdetails.php?sid=423 for the lyrics.

Any comments, suggestions, mistakes: please email atroxmundus@hotmail.com

***************************************************************************************
* Generated using Power Tab Editor by Brad Larsen - http://powertab.guitarnetwork.org *
***************************************************************************************
Comments