British Sea Power - Favours In The Beetroot Fields Chords & Tabs

 

Favours In The Beetroot Fields Chords & Tabs

British Sea Power Chords & Tabs

Version: 1 Type: Bass Tab 0 ratings
1 star 2 stars 3 stars 4 stars 5 stars
comments

Favours In The Beetroot Fields Bass Tab

   
Favours in the Beetroot Fields
By British Sea Power
From "The Decline of the British Sea Power"
Tabbed by pil101@yahoo.com


G------------------------------------------
D-/14\0---/14--14-16-17-14\0---------------
A------------------------------------------intro
E------------------------------------------
slide into "e" both times and hold

[ Tab from: http://www.guitartabs.cc/tabs/b/british_sea_power/favours_in_the_beetroot_fields_btab.html ]
G------------------------------------------
D------------------------------------------
A-7-7---332-0------------------------------verse x4
E------------------------------------------



"...everything you say and do"
G------------------------------------------
D------------------------------------------ 
A-7-7-7-7-7-7-7-7-/-12-12-12-12-12-12-12-12 chorus
E------------------------------------------ 


verse x2

chorus

verse x2

G-------------------------------------
D-------------------------------------
A-------7----9----12----14----16------
E-0-----------------------------------

verse x4


End.
Comments