British Sea Power - Carrion Chords & Tabs

 

Carrion Chords & Tabs

British Sea Power Chords & Tabs

Version: 1 Type: Tab 0 ratings
1 star 2 stars 3 stars 4 stars 5 stars
comments

Carrion Tab

   
Artist: British Sea Power
Title: Carrion

Intro:
(Riff 1)
|--------------------------------------------------|
|--------------------------------------------------|
|-5~5~5~4~4~4~5~5~5~4~4~4~5~5~5~4~4~4~5~5~5~4~4~4~-|
|--------------------------------------------------|
|--------------------------------------------------|
|--------------------------------------------------|

|--------------------------------3-7-5-3---|
|-------------------------3-3-3h5----------|
|-5~5~5~4~4~4~5~5~5~4~4~4--4-4-------------|
|------------------------------------------|
|------------------------------------------|
|------------------------------------------|


Verse:
after the lyric "Inside of your heart"
(Riff 2)
|------------|
|---5/12-----|
|------------|
|------------|
|------------|
|------------|

Then "I felt the lapping of an __ time"
|-----3-----4--|------4p2---|-----3-----4--|------3-----4--|
|-2/5---2/5----|--2/5-------|-2/5---2/5----|--2/5---2/5----|
|--------------|------------|--------------|---------------|
|--------------|------------|--------------|---------------|
|--------------|------------|--------------|---------------|
|--------------|------------|--------------|---------------|

|---------|
|-8p7-8-7-|
|---------|
|---------|
|---------|
|---------|
[ Tab from: http://www.guitartabs.cc/tabs/b/british_sea_power/carrion_tab.html ]
Chorus:
C                  D      
Oh the heavy water how it enfolds
G                                Em
The salt the spray the gorgeous undertow
C               D          
Always, always, always the sea
G               Em
Brilliantine mortality

Riff 1:
|--------------------------------------------------|
|--------------------------------------------------|
|-5~5~5~4~4~4~5~5~5~4~4~4~5~5~5~4~4~4~5~5~5~4~4~4~-|
|--------------------------------------------------|
|--------------------------------------------------|
|--------------------------------------------------|

|--------------------------------3-7-5-3---|
|-------------------------3-3-3h5----------|
|-5~5~5~4~4~4~5~5~5~4~4~4--4-4-------------|
|------------------------------------------|
|------------------------------------------|
|------------------------------------------|

Verse again---

Noise made at 1:31
|--14~~---|
|---------|
|---------|
|---------|
|---------|
|---------|

And at 1:46
|--12~~---|
|---------|
|---------|
|---------|
|---------|
|---------|

Riff 2 at 1:54

Chorus

Solo:
Starting straight after Riff 1
|/121212----------------------------------|
|--------15---15\12-12--------------------|
|----------------------12-12-14b(15)(15)--|
|-----------------------------------------|
|-----------------------------------------|
|-----------------------------------------|

Verse or something

Chorus

Fade Out.


http://www.britishseapower.co.uk
Comments