Brings - Su Lang Mer Noch Am Laeaeve Sin Chords & Tabs

 

Su Lang Mer Noch Am Laeaeve Sin Chords & Tabs

Brings Chords & Tabs

Version: 1 Type: Tab 0 ratings
1 star 2 stars 3 stars 4 stars 5 stars
comments

Su Lang Mer Noch Am Laeaeve Sin Tab

   
Su lang mer noch am Lääve sin (Party Version)

Die Gitarren sind einen Halbton tiefer gestimmt!


Refrain

   a                d             G                 C
Su lang mer noch am Lääve sin, am Laache, Kriesche, Danze sin,
   F          E             a   E
su lang - mer noch am Lääve sin.

   a                d             G                 C
Su lang mer noch am Lääve sin, am Laache, Kriesche, Danze sin,
   F          E             a   E
su lang - mer noch am Lääve sin.

   a                d             G                 C
Su lang mer noch am Lääve sin, am Laache, Kriesche, Danze sin,
   F          E             a   E
su lang - mer noch am Lääve sin.

a d G C F E a E
a d G C F E a E


1. Strophe

a                E                          a
Mer sin wirklich offe, mer schwaade nit drömröm.
                  E                           a
Uns Hätze schlage allsamp im Rhythmus vun ner Tromm.
    Riff 1        C           E               a
Mer drieße jet op morje, denn hück do han mer Lauf.
  G                  C              E
E schläch Jewisse un Sorje, jo, dat nemme mer in Kauf.


Riff 1

   G               C               E               a
1:---------------------3-----3---3-----7-----7---------------------|
2:-----3-----3-6-3---5-----5---------9-----9-----9-----5-----5---5-|
3:---4-----4-------5-----5-----5---9-----9-----9-----5-----5-------|
4:-5-----5-----------------------------------------7-----7-----7---|
5:-----------------------------------------------------------------|
6:-----------------------------------------------------------------|

   G               C               E
1:---------------------3-----3---------7-----7-----7-------7-|
2:-----3-----3-------5-----5---------9-----9-----9---9---9---|
3:---4-----4-----4-5-----5-----5-4-9-----9-----9-------9-----|
4:-5-----5-----5---------------------------------------------|
5:-----------------------------------------------------------|
6:-----------------------------------------------------------|
 
Refrain

   a                d             G                 C
Su lang mer noch am Lääve sin, am Laache, Kriesche, Danze sin,
   F          E             a   E
su lang - mer noch am Lääve sin.

   a                d             G                 C
Su lang mer noch am Lääve sin, am Laache, Kriesche, Danze sin,
   F          E             a   E
su lang - mer noch am Lääve sin.


2. Strophe

a                E                               a
Mer sin echt nit kleinlich, uns kütt et nit drop an
             E                      a
op du gerade heute frisch bist oder klamm.
    Riff 2        C            E               a
Mer welle, dat in unsrer Stadt jeder glücklich weed.
   G                C        E
Et jit jet, dat mer üvverall op d´r Welt versteiht.


Riff 2

   G               C               E               a
1:---------------------3-----3---3-----7-----7---7-----------------|
2:-----3-----3---3---5-----5---------9-----9-----------5-----5---5-|
3:---4-----4-------5-----5-----5---9-----9-----9-----5-----5-------|
4:-5-----5-----5-----------------------------------7-----7-----7---|
5:-----------------------------------------------------------------|
6:-----------------------------------------------------------------|

   G               C               E
1:---------------------3-----3---3-----7-----7-----7-----7-7-|
2:-----3-----3---3---5-----5---------9-----9-----9-----9-----|
3:---4-----4-------5-----5-----5---9-----9-----9-----9-------|
4:-5-----5-----5---------------------------------------------|
5:-----------------------------------------------------------|
6:-----------------------------------------------------------|


Refrain

   a                d             G                 C
Su lang mer noch am Lääve sin, am Laache, Kriesche, Danze sin,
   F          E             a   E
su lang - mer noch am Lääve sin.

   a                d             G                 C
Su lang mer noch am Lääve sin, am Laache, Kriesche, Danze sin,
   F          E             a   E Solo 1
su lang - mer noch am Lääve sin.
 
Solo 1

   a             d            G            C           F             E
1:------------------10~-12/10------3---3~----8~-10/8-----1-----5---5-4-4-|
2:----10~----10~---------------------------------------------------------|
3:---------------10-----------10/4---4----/9---------9/2---2/5---5-------|
4:-10-----10-------------------------------------------------------------|
5:-----------------------------------------------------------------------|
6:-----------------------------------------------------------------------|

           a         E        a                     d              G
1:-4-5-7-4-5-----------4---4~--------------------------10-12/10------3-|
2:-------------------------------10~----12/10~---10--------------------|
3:-----------4-5-7/5-4---4--------------------------10----------10/4---|
4:----------------------------10-----10-------10-----------------------|
5:---------------------------------------------------------------------|
6:---------------------------------------------------------------------|

         C          F               E           a         E
1:-5/3-----8-10/8-----1---1---5---5-4-4-4-5-7-4-5-----------4~---4~-|
2:----------------------------------5-5-----------------------------|
3:-----4/9--------9/2---2---5---5---4-4-----------4-5-7-5-4----4----|
4:------------------------------------------------------------------|
5:------------------------------------------------------------------|
6:------------------------------------------------------------------|

   a                       d                    G        C
1:----------------------------10-12/10-12/10------3~-5/3---8-10-10-|
2:----10-12/10-12/10----10------------------------------------8--8-|
3:-------------------------10----------------10/4--------9----9--9-|
4:-10----------------10--------------------------------------------|
5:-----------------------------------------------------------------|
6:-----------------------------------------------------------------|
[ Tab from: http://www.guitartabs.cc/tabs/b/brings/su_lang_mer_noch_am_laeaeve_sin_tab.html ]
               F              E           a      E
1:-11-11-12-12/--1---1---5--5-4-4-4-5-7-4-5--------4~-|
2:--8--8--8--8/-----------------5------------------5~-|
3:--9--9--9--9/2---2---5--5---4-4-----------4-5~-4-4~-|
4:----------------------------------------------------|
5:----------------------------------------------------|
6:----------------------------------------------------|


Refrain

   a                d             G                 C
Su lang mer noch am Lääve sin, am Laache, Kriesche, Danze sin,
   F          E             a   E
su lang - mer noch am Lääve sin.

   a                d             G                 C
Su lang mer noch am Lääve sin, am Laache, Kriesche, Danze sin,
   F          E             a   E
su lang - mer noch am Lääve sin.

 
   a                d             G                 C
Su lang mer noch am Lääve sin, am Laache, Kriesche, Danze sin,
   F          E             a   E
su lang - mer noch am Lääve sin.

   a                d             G                 C
Su lang mer noch am Lääve sin, am Laache, Kriesche, Danze sin,
   F          E             a   E
su lang - mer noch am Lääve sin.

   a                d             G                 C
Su lang mer noch am Lääve sin, am Laache, Kriesche, Danze sin,
   F          E             a   E
su lang - mer noch am Lääve sin.

   a                d             G                 C
Su lang mer noch am Lääve sin, am Laache, Kriesche, Danze sin,
   F          E             a   E
su lang - mer noch am Lääve sin.

   a                d             G                 C
Su lang mer noch am Lääve sin, am Laache, Kriesche, Danze sin,
   F          E             a   d G C F E a E
su lang - mer noch am Lääve sin.

(Publikum singt)
   a                d             G                 C
Su lang mer noch am Lääve sin, am Laache, Kriesche, Danze sin,
   F          E             a   E
su lang - mer noch am Lääve sin.

   a                d             G                 C
Su lang mer noch am Lääve sin, am Laache, Kriesche, Danze sin,
   F          E             a   E
su lang - mer noch am Lääve sin.

   a                d             G                 C
Su lang mer noch am Lääve sin, am Laache, Kriesche, Danze sin,
   F          E             a   E
su lang - mer noch am Lääve sin.

   a                d             G                 C
Su lang mer noch am Lääve sin, am Laache, Kriesche, Danze sin,
   F          E             a   E Solo 2
su lang - mer noch am Lääve sin.


 
Solo 2

  a              d G              C F              H  E          a
1:---5-7-8-7-5----------5-7-5--------------5-------------4-5-7-4-5~/-|
2:-5-----------5-6~---8-------8---5~---6-8---8-6-5-4~-5~-------------|
3:------------------7-----------7----5-------------------------------|
4:-------------------------------------------------------------------|
5:-------------------------------------------------------------------|
6:-------------------------------------------------------------------|

  a              d G              C F              H  E          a
1:---5-7-8-7-5----------5-7-5--------------5-------------4-5-7-4-5~-|
2:-5-----------5-6~---8-------8---5~---6-8---8-6-5-4~-5~------------|
3:------------------7-----------7----5------------------------------|
4:------------------------------------------------------------------|
5:------------------------------------------------------------------|
6:------------------------------------------------------------------|

  a                     d  G                     C  F
1:----17-19-20-19-17--------------17-19-17--------------------17----------|
2:-17----------------17-18~----20----------20-18-17~----18-20----20-18-17-|
3:--------------------------19-----------------------17-------------------|
4:------------------------------------------------------------------------|
5:------------------------------------------------------------------------|
6:------------------------------------------------------------------------|

   H   E               a   E            a   E            a      a
1:---------16-17-19-16-17~/-16-17-19-16-17~/-16-17-19-16-17~-17-17/-|
2:-16~-17~----------------------------------------------------------|
3:------------------------------------------------------------------|
4:------------------------------------------------------------------|
5:------------------------------------------------------------------|
6:------------------------------------------------------------------|


Refrain

   a                d             G                 C
Su lang mer noch am Lääve sin, am Laache, Kriesche, Danze sin,
   F          E             a   E
su lang - mer noch am Lääve sin.

   a                d             G                 C
Su lang mer noch am Lääve sin, am Laache, Kriesche, Danze sin,
   F          E             a   E
su lang - mer noch am Lääve sin.

   a                d             G                 C
Su lang mer noch am Lääve sin, am Laache, Kriesche, Danze sin,
   F          E             a   E
su lang - mer noch am Lääve sin.

 
   a                d             G                 C
Su lang mer noch am Lääve sin, am Laache, Kriesche, Danze sin,
   F          E             a   E
su lang - mer noch am Lääve sin.

   a                d             G                 C
Su lang mer noch am Lääve sin, am Laache, Kriesche, Danze sin,
   F          E             a   E
su lang - mer noch am Lääve sin,
   F          E             a   a
su lang - mer noch am Lääve sin.



         ------------------------------------------------------


                Mehr BRINGS-Tabs auf brings-tabs.de.vu!


         ------------------------------------------------------
Comments