Brings - Man Msste Noch Mal 20 Sein Chords & Tabs

 

Man Msste Noch Mal 20 Sein Chords & Tabs

Brings Chords & Tabs

Version: 1 Type: Tab 0 ratings
1 star 2 stars 3 stars 4 stars 5 stars
comments

Man Msste Noch Mal 20 Sein Tab

   
Man müsste noch mal zwanzig sein

Die Gitarren sind einen Halbton tiefer gestimmt!


Intro

   e           e  e              e                  e  e
1:--------------------------------------------------------|
2:----------5--3------------------------------------------|
3:-4--4-4-4-------2--2-2-2-5--4--0--0-0-0-4-2-4/2/0-------|
4:--------------------------------------------------4--2--|
5:--------------------------------------------------------|
6:--------------------------------------------------------|

   e
1:--------------------------------------------------------|
2:----------5--3------------------------------------------|
3:-4--4-4-4-------2--2-2-2-5--4--0--0-0-0-4-2-4/2/0-------|
4:--------------------------------------------------4--2--|
5:--------------------------------------------------------|
6:--------------------------------------------------------|

   e        a     D        e     e        C   h        e
1:--------------------------------------------------------|
2:----------5--3------------------------------------------|
3:-4--4-4-4-------2--2-2-2-5--4--0--0-0-0-4-2-4/2/0-------|
4:--------------------------------------------------4--2--|
5:--------------------------------------------------------|
6:--------------------------------------------------------|



1. Strophe

e                     a      D           e
Sitzt der Mensch beim Weine, werden alle seine
e                 C     h       e
längst vergessnen alten Wünsche wach.
C                        h
Und er hängt dem größten und vielleicht dem besten
a                     G      D
seiner oft geträumten Träume nach.
a              G       D              G
Kämen doch die Zeiten, die vergingen, wieder.
a             G      a  h   C    a D    e D
Käme doch die Jugend einmal noch zurück.


 
Refrain

    G      D                                    G
Man müsste noch mal 20 sein und so verliebt wie damals
                D                        G    D e
und irgendwo am Wiesenrain vergessen die Zeit.
D   G                  D                            G
Und wenn das Herz dann ebenso entscheiden könnt wie damals,
                    a                   D    C#   D                 G
ich glaube, dann entschied es sich noch mal, noch mal, noch mal für Dich.


   e        a     D        e     e        C   h        e
1:--------------------------------------------------------|
2:----------5--3------------------------------------------|
3:-4--4-4-4-------2--2-2-2-5--4--0--0-0-0-4-2-4/2/0-------|
4:--------------------------------------------------4--2--|
5:--------------------------------------------------------|
6:--------------------------------------------------------|


2. Strophe

e             a      D                e
Ja so mancher Zecher sitzt vor leerem Becher,
e              C      h     e
wie vor seiner eignen Jugendzeit.
C                     h
Und der Wein im Glase rötete die Nase,
a                  G        D
doch er trübte die Vergangenheit.
a                  G      D           G
Könnt er doch noch einmal alles neu beginnen.
a                  G      a h   C  a   D   e D
könnt er doch noch einmal alles besser tun.


Refrain
[ Tab from: http://www.guitartabs.cc/tabs/b/brings/man_msste_noch_mal_20_sein_tab.html ]
    G      D                                    G
Man müsste noch mal 20 sein und so verliebt wie damals
                D                        G    D e
und irgendwo am Wiesenrain vergessen die Zeit.
D   G                  D                            G
Und wenn das Herz dann ebenso entscheiden könnt wie damals,
                    a                   D    C#   D                 G
ich glaube, dann entschied es sich noch mal, noch mal, noch mal für Dich,
                    a                   D    C#   D                 G
ich glaube, dann entschied es sich noch mal, noch mal, noch mal für Dich.

 
G         a      D                   G
Du, ja du allein wirst den Traum mir verzeih´n
e              a             D               G
den ich heut geträumt hab, geträumt hab beim Wein.
G         a      D                   h
Du, ja du allein wirst den Traum mir verzeih´n
e              a             D
den ich heut geträumt hab, geträumt hab, geträumt hab.


Refrain

    G      D                                    G
Man müsste noch mal 20 sein und so verliebt wie damals
                D                        G    D e
und irgendwo am Wiesenrain vergessen die Zeit.
D   G                  D                            G
Und wenn das Herz dann ebenso entscheiden könnt wie damals,
                    a                   D    C#   D                 G
ich glaube, dann entschied es sich noch mal, noch mal, noch mal für Dich.

    G      D                                    G
Man müsste noch mal 20 sein und so verliebt wie damals
                D                        G    D e
und irgendwo am Wiesenrain vergessen die Zeit.
D   G                  D                            G
Und wenn das Herz dann ebenso entscheiden könnt wie damals,
                    a                   D    C#   D                 G
ich glaube, dann entschied es sich noch mal, noch mal, noch mal für Dich,
                    a                   D     C#   D
ich glaube, dann entschied es sich noch mal, (noch mal,) noch mal,
 C#   D                C#   D                  G    Outro
(noch mal,) noch mal, (noch mal), noch mal für Dich.


Outro

   e        a     D        e     e        C   h        e
1:--------------------------------------------------------|
2:----------5--3------------------------------------------|
3:-4--4-4-4-------2--2-2-2-5--4--0--0-0-0-4-2-4/2/0-------|
4:--------------------------------------------------4--2--|
5:--------------------------------------------------------|
6:--------------------------------------------------------|

   e        a     D        e     e        C   h    e
1:----------------------------------------------------|
2:----------5--3--------------------------------------|
3:-4--4-4-4-------2--2-2-2-5--4--0--0-0-0-4-2-0-------|
4:----------------------------------------------4--2--|
5:----------------------------------------------------|
6:----------------------------------------------------|

 
    e        C   h        e
1:---------------------------|
2:---------------------------|
3:--0--0-0-0-4-2-4/2/0-------|
4:---------------------4--2--|
5:---------------------------|
6:---------------------------|



         ------------------------------------------------------


                Mehr BRINGS-Tabs auf brings-tabs.de.vu!


         ------------------------------------------------------
Comments