Brings - Dich Verjess Ich Nie Chords & Tabs

 

Dich Verjess Ich Nie Chords & Tabs

Brings Chords & Tabs

Version: 1 Type: Tab 0 ratings
1 star 2 stars 3 stars 4 stars 5 stars
comments

Dich Verjess Ich Nie Tab

   
Dich verjess ich nie

Die Gitarren sind einen Halbton tiefer gestimmt!


Intro

G Gmaj7 G Gsus4 G Gmaj7 G Gsus4


1. Strophe

G               Gmaj7  G            Gsus4
Kanns du dich erinnre, wie et föher wor,
G        Gmaj7        G      Gsus4
  im Ihrefeld, vör 20 Johre?
G          Gmaj7         G           Gsus4
  Mer wore jung, uns wor alles drissejal,
G           Gmaj7            G    Gsus4
  doch dann han   mer uns verlore.

    h                     e
Mer wore wie d´r Qualm in dinger kleine Bud,
C                    D
Finster op un fott-jeflore.
h                    e
Han mer uns am Engk, nor jet vörjemaht,
        C  h   a     G D
uns jet in die Täsch jelore.


Refrain

      G           D
Einer kütt, einer jeiht,
      e              C
einer fällt un einer steiht,
      G     D                e   C
ävver dich, dich verjess ich nie.
      G            D
Einer krüvv, einer springk,
      e              C
einer jerad un einer link,
      G     D                e   D C
ävver dich, dich verjess ich nie,
      G     D                G   Gmaj7 G Gsus4  G Gmaj7 G Gsus4
ävver dich, dich verjess ich nie.



 
2. Strophe

G              Gmaj7 G                 Gsus4
Weiß du wie et es,   mondaachs-morjens-fröh,
G        Gmaj7             G       Gsus4
  im Ihrefeld, om Wäch zor Arbeit?
   G               Gmaj7         G                 Gsus4
Di Hätz es noch am dräume, dinge Kopp es schon hellwaach
G          Gmaj7           G     Gsus4
  un dat Jeföhl, jet zu versäume.

   h                         e
Ne Daach ohne Laache, su jet han mer nit jekannt,
        C     h       a     G D
mer sin immer einfach in et   Füer erinn jerannt.


Refrain

      G           D
Einer kütt, einer jeiht,
      e              C
einer fällt un einer steiht,
      G     D                e   C
ävver dich, dich verjess ich nie.
      G            D
Einer krüvv, einer springk,
      e              C
einer jerad un einer link,
      G     D                e   D C
ävver dich, dich verjess ich nie,
      G     D                G   C D
ävver dich, dich verjess ich nie.

      G           D
Einer kütt, einer jeiht,
      e              C
einer fällt un einer steiht,
      G     D                e   C
ävver dich, dich verjess ich nie.
      G            D
Einer krüvv, einer springk,
      e              C
einer jerad un einer link,
      G     D                e   D C
ävver dich, dich verjess ich nie,
      G     D                G   Gmaj7 G Gsus4
ävver dich, dich verjess ich nie.

      G     Gmaj7             G   Gsus4
Ävver dich, dich  verjess ich nie,
      G     Gmaj7             G   Gsus4
ävver dich, dich  verjess ich nie.
[ Tab from: http://www.guitartabs.cc/tabs/b/brings/dich_verjess_ich_nie_tab.html ]
 
      G     Gmaj7             G   Gsus4
Ävver dich, dich  verjess ich nie,
      G     Gmaj7             G   C D Solo
ävver dich, dich  verjess ich nie.


Solo

   G               D               e               C
1:-----3-----3-----3-----3-----3-----3-----3-----3-----3-----3----|
2:-0/1---0/1---0/1---0/1---0/1---0/1---0/1---0/1---0/1---0/1------|
3:-------------------------------------------------------------4/-|
4:----------------------------------------------------------------|
5:----------------------------------------------------------------|
6:----------------------------------------------------------------|

   G          D                         e            C
1:--------------------------------10b12~12~-12-10------------|
2:--------------------8-------8-------------------12-11~-----|
3:--------7-9-----7/9---9-7-9---9------------------------12~-|
4:-7/9-10-----7/9--------------------------------------------|
5:-----------------------------------------------------------|
6:-----------------------------------------------------------|

   G                 D              e          C
1:-------------15----17b19~19~-15----18~-15----15~-17-15~-|
2:-11/12-15-13----15--------------15--------17------------|
3:--------------------------------------------------------|
4:--------------------------------------------------------|
5:--------------------------------------------------------|
6:--------------------------------------------------------|

   G                 D                          e
1:-20-19-19-22-19----20-19-19-22-19----22-19----22-19----20-19----------|
2:----------------20----------------20-------20-------20-------20-------|
3:----------------------------------------------------------------19-16-|
4:----------------------------------------------------------------------|
5:----------------------------------------------------------------------|
6:----------------------------------------------------------------------|

                     C   D  (G)
1:-20-19--------------------------|
2:-------20-----------------------|
3:----------19-16/12-12~-14~-12~~-|
4:--------------------------------|
5:--------------------------------|
6:--------------------------------|


 
Refrain

      G           D
Einer kütt, einer jeiht,
      e              C
einer fällt un einer steiht,
      G     D                e   C D
ävver dich, dich verjess ich nie.

      G           D
Einer kütt, einer jeiht,
      e              C
einer fällt un einer steiht,
      G     D                e   C
ävver dich, dich verjess ich nie.
      G            D
Einer krüvv, einer springk,
      e              C
einer jerad un einer link,
      G     D                e   D C
ävver dich, dich verjess ich nie,
      G     D                G   C D
ävver dich, dich verjess ich nie.

      G           D
Einer kütt, einer jeiht,
      e              C
einer fällt un einer steiht,
      G     D                e   C
ävver dich, dich verjess ich nie.
      G            D
Einer krüvv, einer springk,
      e              C
einer jerad un einer link,
      G     D                e   D C
ävver dich, dich verjess ich nie,
      G     D                C   h a C h a C h a  G G
ävver dich, dich verjess ich nie.



         ------------------------------------------------------


                Mehr BRINGS-Tabs auf brings-tabs.de.vu!


         ------------------------------------------------------
Comments