Bright Eyes - You Will Riff Chords & Tabs

 

You Will Riff Chords & Tabs

Bright Eyes Chords & Tabs

Version: 1 Type: Tab 0 ratings
1 star 2 stars 3 stars 4 stars 5 stars
comments

You Will Riff Tab

   
##################################################################################
# This file is the author's own work and represents their interpretation of the  #
# song. You may only use this file for private study, scholarship, or research.  #
##################################################################################

Title: You Will. You? Will. You? Will. You? Will.

Artist: Bright Eyes

Album: Lifted or The Story Is In The Soil Keep Your Ear To The Ground

Key of E

Chords used: 
[ Tab from: http://www.guitartabs.cc/tabs/b/bright_eyes/you_will_riff_tab.html ]
     E      B7      A      F#
e|---0------0-------0------2-----------------------------------------------------|
B|---0------0-------2------2-----------------------------------------------------|
G|---1------2-------2------3-----------------------------------------------------|
D|---2------1-------2------4-----------------------------------------------------|
A|---2------2-------0------4-----------------------------------------------------|
E|---0------0-------0------2-----------------------------------------------------|

Intro/Main Riff:

      E  B7    E          (Be sure to hit the open E note before the E chord)
e|----0---0----0----------------------------------------------------------------|
B|----0---0----0----------------------------------------------------------------|
G|----1---2----1----------------------------------------------------------------|
D|----2---1----2----------------------------------------------------------------|
A|----2---2----2----------------------------------------------------------------|
E|--0-0---0--0-0----------------------------------------------------------------|
Comments