Bright Eyes - Sunrise Sunset Chords & Tabs

 

Sunrise Sunset Chords & Tabs

Bright Eyes Chords & Tabs

Version: 2 Type: Tab 0 ratings
1 star 2 stars 3 stars 4 stars 5 stars
comments

Sunrise Sunset Tab

   
h - hammer on
      p - pull off
      b - bend string up
      r - release bend
      / - slide up
       - slide down
      v - vibrato (sometimes written as ~)
      t - right hand tap
      x - play 'note' with heavy damping

This is song pretty. the only thing is that there are 3 guitars playing during the verse.
i dont know all the part so ill only post what i know


Intro/verse

E.------5--5-----5--5-----5--5-----5--5-|
B.------5--5-----5--5-----5--5-----5--5-|
G.------5--5-----5--5-----5--5-----5--5-|
D.---7--------6--------7--------6-------|
A.--------------------------------------|
E.--------------------------------------|

thats for the whole song

lead 1
E----------------------------------------------------------------|
B-----------9---10/12/10--9-9h10p9-------------------------------|
G----9h10p9------------------------10-9-7---9-10-----------------|
D-7--------------------------------------------------------------|
A----------------------------------------------------------------|
E----------------------------------------------------------------|

this lead goes over the verse part righ after "you lying while you confess....."

lead 2
E-----------------------------------------------------------------|
B-----------9------17--------------17-----------------------------|(repeat a couple of
G----9h10p9------17--17-16-14-16-17--17-16-14---------------------|times)
D-7---------------------------------------------------------------|
A-----------------------------------------------------------------|
E-----------------------------------------------------------------|

lead 3

      t - right hand tap
      x - play 'note' with heavy damping

This is song pretty. the only thing is that there are 3 guitars playing during the verse.
i dont know all the part so ill only post what i know


Intro/verse
[ Tab from: http://www.guitartabs.cc/tabs/b/bright_eyes/sunrise_sunset_tab_ver_2.html ]
E.------5--5-----5--5-----5--5-----5--5-|
B.------5--5-----5--5-----5--5-----5--5-|
G.------5--5-----5--5-----5--5-----5--5-|
D.---7--------6--------7--------6-------|
A.--------------------------------------|
E.--------------------------------------|

thats for the whole song

lead 1
E----------------------------------------------------------------|
B-----------9---10/12/10--9-9h10p9-------------------------------|
G----9h10p9------------------------10-9-7---9-10-----------------|
D-7--------------------------------------------------------------|
A----------------------------------------------------------------|
E----------------------------------------------------------------|

this lead goes over the verse part righ after "you lying while you confess....."

lead 2

E-----------------------------------------------------------------|
B-----------9------17--------------17-----------------------------|(repeat a couple of
G----9h10p9------17--17-16-14-16-17--17-16-14---------------------|times)
D-7---------------------------------------------------------------|
A-----------------------------------------------------------------|
E-----------------------------------------------------------------|

chorus

srtum the Em for a lil bit these chords

E.----0------5-------7--------------|
B.----0------5-------5--------------|
G.----1------5-------7--------------|
D-----2------7-------6--------------|
A.----2-----------------------------|
E.----0-----------------------------|

a second guitar plays these chords

E.----0------0-------0--------------|
B.----0------1-------3--------------|
G.----1------2-------2--------------|
D.----2------2-------2--------------|
A.----2------0-------0--------------|
E.----0------0-------0--------------|

the rest of the song is the same except for the flute lead and the 3rd guitar which is finger picked.

flute at end

D.-7-6-7-6-6-7/10-9-7-6/7-7-
Comments