Bright Eyes - Something Vauge Chords & Tabs

 

Something Vauge Chords & Tabs

Bright Eyes Chords & Tabs

Version: 1 Type: Tab 0 ratings
1 star 2 stars 3 stars 4 stars 5 stars
comments

Something Vauge Tab

something vauge - bright eyes
i found a chord thing here,  but the hammer parts were not there
i think this is correct,  if not yell at me to fix it.
E ----1----------0-------------3-------------0
B ----1--1h3p1---1----1h3p1----0----0h3p0----1
G ----2----------0-------------0-------------2
D -3-------------2-------------0-------------2
A ------------3----------------2----------0---
E --------------------------3-----------------


E ----1----------0-------------3---------3----
B ----1--1h3p1---1----1h3p1----0---------0----
G ----2----------0-------------0---------0----
D -3-------------2-------------0---------0----
A ------------3----------------2---------2----
E --------------------------3--------3-3------

ozmanaut88@yahoo.com

=w=
[ Tab from: http://www.guitartabs.cc/tabs/b/bright_eyes/something_vauge_tab.html ]
Comments