Bright Eyes - Road To Joy Chords & Tabs

 

Road To Joy Chords & Tabs

Bright Eyes Chords & Tabs

Version: 1 Type: Tab 0 ratings
1 star 2 stars 3 stars 4 stars 5 stars
comments

Road To Joy Tab

   
capo on one?
Intro part:
E---------|
B---1---1-|
G-----0---|
D---------|
A-3-------|
E---------|

Verses:
E-------------------------------------|
B---1---1---1---1---1---1------1---1--|
G------------------0------------------|
D-----0---2---3-------3----3---2------|
A-3-----------------------------------|
E-------------------------------------|

E---------------------------------|
B---1---1---1---1---1---1---1---1-|
G---------------------------------|
D-----0---2---3---2---2---0---0---|
A-3-------------------------------|
E---------------------------------|
[ Tab from: http://www.guitartabs.cc/tabs/b/bright_eyes/road_to_joy_tab.html ]
E-------------------------------------|
B---1---1---1---1---1---1------1---1--|
G------------------0------------------|
D-----0---2---3-------3----3---2------|
A-3-----------------------------------|
E-------------------------------------|

E-------------------------------------------------------------|
B---1---1---1---1---1---1---1---1---1---1---1---1---1---1-----|
G--------------------------------0-------0-------0-------0----|
D-----0---2---3---2---2---------------------------------------|
A-3-------------------------3--------3-------3-------3--------|
E-------------------------------------------------------------|


Chorus part:
Am
E----------|
B---1---1--|
G-----2----| X4
D----------|
A-0--------|
E----------|

C
Intro X4
Part

F
E------------|
B---1---1----|
G-----2------| X2
D-3----------|
A------------|
E------------|

G
E-----------|
B---3---3---|
G-----4-----| X2
D-5---------|
A-----------|
E-----------|

C
Intro
Part X4
Comments