Bright Eyes - Pull My Hair Chords & Tabs

 

Pull My Hair Chords & Tabs

Bright Eyes Chords & Tabs

Version: 1 Type: Tab 0 ratings
1 star 2 stars 3 stars 4 stars 5 stars
comments

Pull My Hair Tab

   
Artist- Bright Eyes
Tabber- Jordan Smith...im(zephyr924)

Tuning- 1/2 step down


Intro/Chorus
  F               C               A#7
e|----------------0-0-0-0-0-0-0-0-1-1-1-1-1-1-1-1-1-1-1-1-1-1-1-1
B|6-6-6-6-6-6-6-6-1-1-1-1-1-1-1-1-3-3-3-3-3-3-3-3-3-3-3-3-3-3-3-3
G|5-5-5-5-5-5-5-5-0-0-0-0-0-0-0-0-1-1-1-1-1-1-1-1-1-1-1-1-1-1-1-1
D|3-3-3-3-3-3-3-3-2-2-2-2-2-2-2-2-3-3-3-3-3-3-3-3-3-3-3-3-3-3-3-3
A|----------------3-3-3-3-3-3-3-3-1-1-1-1-1-1-1-1-1-1-1-1-1-1-1-1
E|---------------------------------------------------------------

[ Tab from: http://www.guitartabs.cc/tabs/b/bright_eyes/pull_my_hair_tab.html ]
Verse
  F                               A#7
e|--------------------------------1-1-1-1-1-1-1-1-1-1-1-1-1-1-1-1
B|6-6-6-6-6-6-6-6-6-6-6-6-6-6-6-6-3-3-3-3-3-3-3-3-3-3-3-3-3-3-3-3
G|5-5-5-5-5-5-5-5-5-5-5-5-5-5-5-5-1-1-1-1-1-1-1-1-1-1-1-1-1-1-1-1
D|3-3-3-3-3-3-3-3-3-3-3-3-3-3-3-3-3-3-3-3-3-3-3-3-3-3-3-3-3-3-3-3
A|--------------------------------1-1-1-1-1-1-1-1-1-1-1-1-1-1-1-1
E|---------------------------------------------------------------


Bridge/Fill Thing

  G                               F
e|3-3-3-3-3-3-3-3-3-3-3-3-3-3-3-3-1-1-1-1-1-1-1-1-1-1-1-1-1-1-1-1
B|3-3-3-3-3-3-3-3-3-3-3-3-3-3-3-3-1-1-1-1-1-1-1-1-1-1-1-1-1-1-1-1
G|0-0-0-0-0-0-0-0-0-0-0-0-0-0-0-0-2-2-2-2-2-2-2-2-2-2-2-2-2-2-2-2
D|0-0-0-0-0-0-0-0-0-0-0-0-0-0-0-0-3-3-3-3-3-3-3-3-3-3-3-3-3-3-3-3
A|2-2-2-2-2-2-2-2-2-2-2-2-2-2-2-2-3-3-3-3-3-3-3-3-3-3-3-3-3-3-3-3
e|3-3-3-3-3-3-3-3-3-3-3-3-3-3-3-3-1-1-1-1-1-1-1-1-1-1-1-1-1-1-1-1


SONG ORDER

Intro/Chorus (2x)
Verse (4x)
Chorus (3x)
Bridge (2x)
Chorus (3x)
Bridge (2x)
Chorus (3x)
Comments