Bright Eyes - Perfect Sonnet Chords & Tabs

 

Perfect Sonnet Chords & Tabs

Bright Eyes Chords & Tabs

Version: 1 Type: Tab 0 ratings
1 star 2 stars 3 stars 4 stars 5 stars
comments

Perfect Sonnet Tab

Artist: Bright Eyes
Song:Perfect Sonnet
Tabbed By: James B.
Email: jamesbracken_@hotmail.com

Intro:
e--000000000000-----------|
B--111111111111-----------|
G--000000000000-----------|
D--222222222222-----------|  x3
A--333333333333-----------|
E-------------------------|
[ Tab from: http://www.guitartabs.cc/tabs/b/bright_eyes/perfect_sonnet_tab.html ]
Verse:
e-00000000000-000000000000-000000000000-333333333333----------------------------|
B-11111111111-000000000000-111111111111-111111111111----------------------------|
G-00000000000-000000000000-222222222222-000000000000----------------------------|
D-22222222222-222222222222-222222222222-000000000000----------------------------|
A-33333333333-222222222222-000000000000-----------------------------------------|
E-------------------------------------------------------------------------------|

Chorus:

e-11111111-333333333-00000000----------------|
B-11111111-333333333-11111111----------------|
G-22222222-000000000-22222222----------------|
D-33333333-000000000-22222222----------------|
A-33333333-222222222-00000000----------------|
E-11111111-333333333-------------------------|

Ending:
e--1-1-1-1-1-1---0--0-h3----------|
B--1-1-1-1-1-1---0--1-------------|
G--1-1-1-1-1-1---0--0-------------|
D--------------------2------------|
A--------------------3------------|
E---------------------------------|

Song Structure:
Intro
Verse
Chorus
Verse
Chorus
Verse
Chorus
Verse
Endin
Comments