Bright Eyes - Lua Chords & Tabs

 

Lua Chords & Tabs

Bright Eyes Chords & Tabs

Version: 1 Type: Tab 0 ratings
1 star 2 stars 3 stars 4 stars 5 stars
comments

Lua Tab

   
-------------------------------------------------------------------------------
			     LUA by Bright Eyes (Conor Oberst)
-------------------------------------------------------------------------------
Tabbed by: Ari
Email: diagramsofsuicide@hotmail.com

Tuning: Standard (EADGBe)

Another lovely song from an excellent songwriter, his 2 new albums are must-buys!

Played with a Capo on the 7th Fret.
He originally played it on a classical guitar too.

Listen to the song to figure out the strumming pattern and timing.

Chords Used:

    G   C  Cmaj7  Am  A7
e|--3---0----0----0---2---
B|--0---1----0----1---3---
G|--0---0----0----2---2---
D|--0---2----2----2---0---
A|--2---3----3----0---0---
E|--3---x----x----x---0---

[INTRO]
e|---3----3----0-0----0-0-----|
B|---0----0----1-1p0--0-0-----|
G|---0----0----0-0----0-0-----| x 2
D|---0----0----2-2----2-2-----|
A|---2----2----3-3----3-3-----|
E|-0-3--0-3--0-x-x--0-x-x-----|

[VERSE 1]
I know that it is freezing..
e|---3----3----0-0----0-0-----|
B|---0----0----1-1p0--0-0-----|
G|---0----0----0-0----0-0-----| x 2
D|---0----0----2-2----2-2-----|
A|---2----2----3-3----3-3-----|
E|-0-3--0-3--0-x-x--0-x-x-----|

But julie knows..
e|---0----0----2----2---------|
B|---1----1----3----3---------|
G|---2----2----2----2---------|
D|---2----2----0----0---------|
A|---x----x----0----0---------|
E|-0-x--0-x--0-x--0-x---------|

Supplies are endless..
e|---0----0----0----2----1----|
B|---1----1----1----3----0----| Played faster
G|---2----0----2----2----0----| 1 strum up, 1 strum down - each chord
D|---2----2----2----0----0----|
A|---x----3----x----0----2----|
E|-0-x--0-x--0-x--0-x--0-3----|

Repeat for 2nd part of Verse 1.

[CHORUS 1]
And i know you have...
e|---0----0----3----3-------|
B|---1----1----0----0-------|
G|---0----0----0----0-------|
D|---2----2----0----0-------|
A|---3----3----2----2-------|
E|-0-x--0-x--0-3--0-3-------|
[ Tab from: http://www.guitartabs.cc/tabs/b/bright_eyes/lua_tab.html ]
So many men...
e|---0----0----3----3----0--|
B|---1----1----0----0----2--|
G|---0----0----0----0----0--|
D|---2----2----0----0----2--|
A|---3----3----2----2----x--|
E|-0-x--0-x--0-3--0-3--0-x--|

But me i'm not..
e|---0----0----0----3----0--|
B|---1----0----1----0----1--|
G|---0----1----2----0----0--|
D|---2----2----2----0----2--|
A|---3----2----0----2----3--|
E|-0-x--0-x--0-x--0-3--0-x--|

You can count..
e|---0----0----0----2----3--|
B|---1----1----1----3----0--|
G|---2----0----2----2----0--|
D|---2----2----2----0----0--|
A|---0----3----0----0----2--|
E|-0-x--0-x--0-x--0-x--0-3--|

[VERSE 2]
Repeat Verse 1 pattern.

[CHORUS 2]
And i'm not sure what..
e|---0----0----3----3-------|
B|---1----1----0----0-------|
G|---0----0----0----0-------|
D|---2----2----0----0-------|
A|---3----3----2----2-------|
E|-0-x--0-x--0-3--0-3-------|

The reasons have all..
e|---0----0----3----3----0--|
B|---1----1----0----0----2--|
G|---0----0----0----0----0--|
D|---2----2----0----0----2--|
A|---3----3----2----2----x--|
E|-0-x--0-x--0-3--0-3--0-x--|

It's not something..
e|---0----0----0----3----0----|
B|---1----0----1----0----1----|
G|---0----1----2----0----0----|
D|---2----2----2----0----2----|
A|---3----2----x----2----3----|
E|-0-x--0-x--0-x--0-3--0-x----|

Cause it was simple..
e|---0----0----0----2----1----|
B|---1----1----1----3----0----|
G|---2----0----2----2----0----|
D|---2----2----2----0----0----|
A|---x----3----x----0----2----|
E|-0-x--0-x--0-x--0-x--0-3----|

Yeah it was simple..
e|---0----0----0----2----0----|
B|---1----1----1----3----0----| 
G|---2----0----2----2----1----|
D|---2----2----2----0----2----|
A|---x----3----x----0----2----|
E|-0-x--0-x--0-x--0-x--0-x----|

It was so simple..
e|---0----0----0----0----0----0---3=--|
B|---1----1----1----1----0----1---0=--| 
G|---2----0----2----0----1----0---0=--|
D|---2----2----2----2----2----2---0=--|
A|---x----3----x----3----2----3---2=--|
E|-0-x--0-x--0-x--0-x--0-x--0-x---3=--|


| /  slide up
| \  slide down
| h  hammer-on
| p  pull-off
| ~  vibrato
| +  harmonic
| x  Mute note
| =  Ring out note
===============================================================================
Comments