Bright Eyes - Lover I Dont Have To Love Chords & Tabs

 

Lover I Dont Have To Love Chords & Tabs

Bright Eyes Chords & Tabs

Version: 4 Type: Tab 0 ratings
1 star 2 stars 3 stars 4 stars 5 stars
comments

Lover I Dont Have To Love Tab

   
	LOVER I DON'T HAVE TO LOVE - Bright Eyes

Tabbing performed by: Rus Goodman
Email: pinkdeathbunny@hotmail.com

Tuning: Your Standard E

NOTE: This is one of my first attempts at tabbing out a complex song, so
Email me if u got any questions or comments.  It might not all be correct,
but I realized the other tabs are way off and this is closer.  I do owe
some of this tabbing to the other versions that are up.  I tried my best,
so here it is.


Intro and main part (Play it an octave up if you'd like):

E---------------------------------|
B---------------------------------|
G---------------------------------|
D---------------------------------|
A---3-7-3---2-5-2---3-7-3-----3-0-|
E-5-------4-------5-------1-1-----|

Main Part Bass(different during "chorus" part):

G--------------------|
D--------------------|
A--------------------|
E-5--5-4-4--2--2-1-1-|

Secondary part:

E-----------------|
B-----------------|
G-----------------|
D---6-7-6-9-6-7-6-|
A-7---------------|
E-----------------|
[ Tab from: http://www.guitartabs.cc/tabs/b/bright_eyes/lover_i_dont_have_to_love_tab_ver_4.html ]
Secondary Part Bass 1 and 2:
-
G-----------------------    G-----------------------------|
D-----------------------    D-----------------------------|
A------7-7-7------7-7-7-    A------7-7-7(let ring)--7-5-3-|
E-0--0-------0--0-------    E-0--0------------------------|

This is the string part in what I think is the chorus:

E---------------------------------------------|
B---------------------------------------------|
G---------------------------------------------|
D---------------------------------------------|
A-8-7--7-8-10--8-7--3-5-8-7--7-8-10--8-7--3-5-|
E---------------------------------------------|

Can't work out piano part towards end, but here's the bass part:

G-----------|
D-5-3-2-----|
A-------5-3-|
E-----------|

Guitar at end:

E---------------------------------|
B---------------------------------|
G-9-9-9-9-9-9-9-9-7-7-7-7-5-5-5-5-|
D-9-9-9-9-7-7-7-7-7-7-7-7-5-5-5-5-|
A-7-7-7-7-7-7-7-7-5-5-5-5-3-3-3-3-|
E---------------------------------|

Again, comments are welcome at: pinkdeathbunny@hotmail.com
Comments