Bright Eyes - Lover I Dont Have To Love Chords & Tabs

 

Lover I Dont Have To Love Chords & Tabs

Bright Eyes Chords & Tabs

Version: 2 Type: Tab 0 ratings
1 star 2 stars 3 stars 4 stars 5 stars
comments

Lover I Dont Have To Love Tab

e]--------------------------------------------------------------|
B]---------5----------------------------------------------------|
G]------5---5----------7-------------9--------------5-----------|
D]---7-------7--9--10-----10--7--10-----9-10-----7-----7--------|  x2
A]-------------------------------------------8------------------|
E]--------------------------------------------------------------|

[ Tab from: http://www.guitartabs.cc/tabs/b/bright_eyes/lover_i_dont_have_to_love_tab_ver_2.html ]
e]--------------------------------------------------------------|
B]--------------------------------------------------------------|
G]--------------------------------------------------------------|
D]------6--7--6--9--6--7--6-------------------------------------|  x2
A]---7----------------------------------------------------------|
E]--------------------------------------------------------------|

You repeat the same thing throughout the whole song, it doesn't change, only sometimes 
first part is played more than 2 times. In the song it's played on a keyboard.
Comments