Bright Eyes - Landlocked Blues Chords & Tabs

 

Landlocked Blues Chords & Tabs

Bright Eyes Chords & Tabs

Version: 2 Type: Tab 0 ratings
1 star 2 stars 3 stars 4 stars 5 stars
comments

Landlocked Blues Tab

tab done by kelsey bell.

this is my first tab so give me some feedback if its wrong, or good.sounds perfect to me.

tunning- regular

solo

E[----2/6---4---6---3-------------------------------------------------------]
B[--4-4/8---6---8---4--8--11--11/13--11--11----11-11h13-13--11/8--11p8-8/6/4]
G[-3------------------------------------------------------------------------]
D[--------------------------------------------------------------------------]
A[--------------------------------------------------------------------------]
e[--------------------------------------------------------------------------]
[ Tab from: http://www.guitartabs.cc/tabs/b/bright_eyes/landlocked_blues_tab_ver_2.html ]
E[------3/6-6/4--3----------------------------------------------------------]
B[----4-4/8-8/6--4----------------------------------------------------------]
G[-3h5----------------------------------------------------------------------]
D[--------------------------------------------------------------------------]
A[--------------------------------------------------------------------------]
e[--------------------------------------------------------------------------]

enjoy! oh that one chourds for landlocked blues is right with the capo on the third 
just listen and add the solo in at the right time.thanks.
my email (rockchick1989@msn.com) give me some feedback.
Comments