Bright Eyes - If Winter Ends Chords & Tabs

 

If Winter Ends Chords & Tabs

Bright Eyes Chords & Tabs

Version: 1 Type: Tab 0 ratings
1 star 2 stars 3 stars 4 stars 5 stars
comments

If Winter Ends Tab

Bright Eyes - If Winter Ends
tabbed by veldox, biatch

|-4-4-4-4--4-4-4-4--2-2-2-2--2-2-2-2-
|-6-6-6-6--4-4-4-4--4-4-4-4--2-2-2-2-
|-6-6-6-6--5-5-5-5--4-4-4-4--3-3-3-3-
|-6-6-6-6--6-6-6-6--4-4-4-4--4-4-4-4-
|-4-4-4-4--6-6-6-6--2-2-2-2--4-4-4-4-
|-4-4-4-4--4-4-4-4--2-2-2-2--2-2-2-2-
[ Tab from: http://www.guitartabs.cc/tabs/b/bright_eyes/if_winter_ends_tab.html ]
bridge thing:
|---------------------------------
|---------------------------------
|-3-3-3-3-3-3-3-3-----------------
|-3-3-3-3-3-3-3-3-4-4-4-4-4-4-4-4-
|-1-1-1-1-1-1-1-1-4-4-4-4-4-4-4-4-
|-----------------2-2-2-2-2-2-2-2- repeat 4x then play this chord

|-----------------
|-----------------
|-----------------
|-6-6-6-6-6-6-6-6-
|-6-6-6-6-6-6-6-6-
|-4-4-4-4-4-4-4-4-
Comments