Bright Eyes - Falling Out Of Love At This Volume Chords & Tabs

 

Falling Out Of Love At This Volume Chords & Tabs

Bright Eyes Chords & Tabs

Version: 1 Type: Tab 0 ratings
1 star 2 stars 3 stars 4 stars 5 stars
comments

Falling Out Of Love At This Volume Tab

   
------------------------------------------------------------
Bright Eyes - Falling Out of Love At This Volume
from "A Collection of Songs..."
------------------------------------------------------------
tabbed by Matt LeFevers (www.myspace.com/MattLeFevers)

Intro:
E-------------------------------------|
B-----3--------3---------3------------|
G---2---2----2---------2---2----------|
D-0---------------------------/5-4-2--|
A----------2------0~------------------|
E-------------------------------------|
[ Tab from: http://www.guitartabs.cc/tabs/b/bright_eyes/falling_out_of_love_at_this_volume_tab.html ]
Verse (palm-muted):
   D5               A5               B5             G5
 "Tell me what you wanted to hear / let me do the right thing
                  D5
  let me do the wrong thing.
           A5         B5                      G5
  If it's ever this clear / I'll only say it once.
                       D5  A5  G5
  Just let me turn my amps way up,
                D5  A5 G5
  So you can't hear a  thing.

Chorus:
            F#5                                G
  "And if I die tonight, then I guess I die tonight.
              (Intro Riff)
   Let me go on..."

Some Noisy Stuff Sort of like This:
E------------------------------------|
B------------------------------------|
G------------------------------------|
D--0~----5h4--4---2----/5~---4-2--0--|
A------------------------------------|
E------------------------------------|

Verse 2 - same
Chorus 2 - same

Outro:
  D5          B5         A5      F#5 G5 A5
E------------------------------------------|
B------------------------------------------|
G-7~----------12~--------11-------14-12-11-|
D------------------------------------------|
A-5~----------10~--------9~-------12-10-9--|
E------------------------------------------|


Chords (low to high):
D5  - x57xxx
B5  - x24xxx
A5  - x02xxx
G5  - 35xxxx
F#5 - 24xxxx
Comments