Briefs - Poor And Weird Chords & Tabs

 

Poor And Weird Chords & Tabs

Briefs Chords & Tabs

Version: 1 Type: Tab 0 ratings
1 star 2 stars 3 stars 4 stars 5 stars
comments

Poor And Weird Tab

Band: Briefs
Song: Poor and Weird


tabbed by jam9383@yahoo.com


Intro

e---------------------------------------------------------------------|
B---------------------------------------------------------------------|
G---------------------------------------------------------------------|
D--8-8-8-8-8-8-8-8-8-8-8-8-8-8-8-8-8-8-8-8-8-8-8----------------------|
A--8-8-8-8-8-8-8-8-8-8-8-8-8-8-8-8-8-8-8-8-8-8-8----------------------|
E--6-6-6-6-6-6-6-6-6-6-6-6-6-6-6-6-6-6-6-6-6-6-6----------------------|

Verse

e---------------------------------------------------------------------|
B---------------------------------------------------------------------|
G-----------------------6-6-6-6-6-6-----------------------------------|
D--8-8-8-8-8-8-8-8-8-8--6-6-6-6-6-6-6-6-6-6-6-6-----------------------|
A--8-8-8-8-8-8-8-8-8-8--4-4-4-4-4-4-6-6-6-6-6-6-----------------------|
E--6-6-6-6-6-6-6-6-6-6--------------4-4-4-4-4-4-----------------------|

Chorus
                              --upstroke---
e-----------------------------6---6---6---6---------------------------|
B-----------------------------6---6---6---6---------------------------|
G-----------------------------7---7---7---7---------------------------|
D--4-4-4-4-4-4---6-6-6-6-6-6--8---8---8---8---------------------------|
A--4-4-4-4-4-4---6-6-6-6-6-6--8---8---8---8---------------------------|
E--2-2-2-2-2-2---4-4-4-4-4-4--6---6---6---6---------------------------|


e---------------------------------------------------------------------|
B---------------------------------------------------------------------|
G---------------------------------------------------------------------|
D--4-4-4-4-4-4--6-6-6-6-6-6-------------------------------------------|
A--4-4-4-4-4-4--6-6-6-6-6-6-------------------------------------------|
E--2-2-2-2-2-2--4-4-4-4-4-4-------------------------------------------|
[ Tab from: http://www.guitartabs.cc/tabs/b/briefs/poor_and_weird_tab.html ]
Pre Solo
e---------------------------------------------------------------------|
B---------------------------------------------------------------------|
G--8--8--8--8---------------------------------------------------------|
D--8--8--8--8--8-8-8-8-8----------------------------------------------|
A--6--6--6--6--8-8-8-8-8----------------------------------------------|
E--------------6-6-6-6-6----------------------------------------------|

Solo

e-----6-6----6-6----6-9-8-6----------------6------6------6-6----6-6---|
B-----6-6----6-6----6-------9-8-6-----6-9b---6-9b--------6-6----6-6---|
G--8b-----8b-----8b---------------8-6-----------------8b-----8b-------|
D---------------------------------------------------------------------|
A---------------------------------------------------------------------|
E---------------------------------------------------------------------|


e-----6-9-8-6------------------------------2-2-2-2-2-2---4-4-4-4-4-4--|
B-----6-------9-8-6------------6-----6-----2-2-2-2-2-2---4-4-4-4-4-4--|
G--8b----------------8-6--6-8b---6-8b----4b------------6b-------------|
D---------------------------------------------------------------------|
A---------------------------------------------------------------------|
E---------------------------------------------------------------------|

e-----6-6-6-6-6-6-9-8-6----------------------------9-9-9-9------------|
B-----6-6-6-6-6-6-------9-8-6----------------------9-9-9-9------------|
G--8b-------------------------6-8---6-8---6-8--11b--------------------|
D---------------------------------8-----8-----------------------------|
A---------------------------------------------------------------------|
E---------------------------------------------------------------------|

e------6-6-6-6-6-6-6~-------------------------------------------------|
B------6-6-6-6-6-6-6~-------------------------------------------------|
G---8b-------------8br~-----------------------------------------------|
D---------------------------------------------------------------------|
A---------------------------------------------------------------------|
E---------------------------------------------------------------------|

any comments/corrections contact me, please rate
Comments