Brides Of Destruction - Shut The Fuck Up Chords & Tabs

 

Shut The Fuck Up Chords & Tabs

Brides Of Destruction Chords & Tabs

Version: 1 Type: Tab 0 ratings
1 star 2 stars 3 stars 4 stars 5 stars
comments

Shut The Fuck Up Tab

Brides of Destruction
Shut the Fu[ Tab from: http://www.guitartabs.cc/tabs/b/brides_of_destruction/shut_the_fuck_up_tab.html ]
Chorus
 Whoa,Whoa,Whoa,Whoa   I'm  So  Sick  Of  You        SHUT THE **** UP!
|--------------------|------------------------------------------------|
|--------------------|------------------------------------------------|
|--5-----------------|------------------------------------------------|
|--5---5-----7----9--|--5---------7--------9-9-9-9-9-9-9-9------------|
|--3---5-----7----9--|--5---------7--------9-9-9-9-9-9-9-9------------|
|------3-----5----7--|--3---------5--------7-7-7-7-7-7-7-7------------|

Intro x4
Verse
Intro x4
Chorus

Interlude

|---------------------------|
|---------------------------|
|---------------------------|
|--2-2---2-2---2-2---2-2-3--|
|--2-2---2-2---2-2---2-2-3--|
|--0-0---0-0---0-0---0-0-1--|

Solo (I'm a Rookie So Can Someone Help Me Out!?!?!?!?!)

Chorus x5

Outro

|-----------------------------------------|
|-----------------------------------------|
|-----------------5-----------------------|
|--5----7----9----5------2-2-2-2-2-2-2-2--|
|--5----7----9----3------2-2-2-2-2-2-2-2--|
|--3----5----7-----------0-0-0-0-0-0-0-0--|


Any Questions Email Me At motleymaniac03@yahoo.com
Comments